» » »

Taking Back Sunday - El Paso Tabs

Artists:  A B C D E F G H I J K L M N O P Q R S T U V W X Y Z # 

El Paso Tabs

(ver. 1) Click to play this song!
Taking Back Sunday
 Rating:
4/5 (4 votes)
                
Drop C# (half step down)

This is a new TBS song and is the first released from the self
title album featuring the original lineup!
There isn't much to the song. It is mostly bass and noise. 
The few guitar parts that there are I attempted to tab.
I am not too sure how accurate it is but it fits
with the song! Contact me if you need.

Intro/Chorus
Guitar 1
|----------------------------|
|------------0---------------|
|---4h666p4p-4b--------------|
|-----------4----------------|
|----------------------------|
|----------------------------|

Guitar 2
|------------------|
|------------------|
|------------------|
|---24444442-------|
|---24444442-------|
|---24444442-------|

No Guitar for the Verses (just random noises)
*a lot of bending from the 4th fret of the low E string 

Bridge
Guitar 1
|---00 00----------------------|
|---99109----------------------|
|------------------------------|
|---------------7p-----7p------|
|--------7h9-7h9--9-7h9--9-----|
|------------------------------|
'You all look the same...'

Guitar 2
|------------------------|
|------------------------|
|---444444---------------|
|---444444-244444444-----|
|---222222-244444444-----|
|----------244444444-----|

Breakdown (mostly pick scr*pes)
'You got your way'
            
Submit corrections

↑ Back to top | Tablatures and chords for acoustic guitar and electric guitar, ukulele, drums are parodies/interpretations of the original songs. You may use it for private study, scholarship, research or language learning purposes only