Home » S » Swinging Blue Jeans »

Swinging Blue Jeans - Hippy Hippy Shake Tabs

Artists:  A B C D E F G H I J K L M N O P Q R S T U V W X Y Z # 

Hippy Hippy Shake Tabs

(ver. 1) Click to play this song!
Swinging Blue Jeans
 Rating:
4/5 (4 votes)
                Hippy Hippy Shake Guitar Riff & Solo
I couldn't find this so I thought I'd tab it myself & share.
It's a great wee solo - as we say in these parts. Braw!


E riff                  A riff                  B riff

|-0-0-3h4-----3h4       |----------------       |------------------|
|---------2-2----       |-0-0-3h4-----3h4       |-2-2--------------|
|---------------—       |---------2-2----       |-----0h1-4-4-0-1--|
|----------------       |----------------       |------------------|
|----------------       |----------------       |------------------|
|----------------       |----------------       |------------------|



Solo       E
|------12-s16-16-16-16s16-16-16-16s16-16-16-16s16-16-16-16s16-16-16-16-----|
|12-14----s17-17-17-17s17-17-17-17s17-17-17-17s17-17-17-17s17-17-17-17-----|
|---------------—--------------—-------------------------------------------|
|--------------------------------------------------------------------------|
|--------------------------------------------------------------------------|
|--------------------------------------------------------------------------|

                           A
|16-16--14-14--12-12-10-10---9-9--7-7-5-5-4-4—-4-4-5-5---------------------|
|17-17--15-15—-14-14—12-12--10-10-9-9-7-7-5-5--5-5-5-5-7-7—5-5-------------|
|------------------------------------------------------7-7-6-6-------------|
|--------------------------------------------------------------------------|
|--------------------------------------------------------------------------|
|--------------------------------------------------------------------------|

 E                   B
|-4-5-7--9-10--9-7-5--15-15-------15-15-------15-15-------15-15-------------|
|5-7-9-10-12-10-9-7---14-14b15p12-14-14b15p12-14-14b15p12-14-14b15p12-------|
|---------------------------------------------------------------------------|
|---------------------------------------------------------------------------|
|---------------------------------------------------------------------------|
|---------------------------------------------------------------------------|

           E                       B
|------12-s16-16-16-16s16-16-16-16-----------------------------------------|
|12-14----s17-17-17-17s17-17-17-17—s12-12-12-12-12-------------------------|
|---------------—--------------—---s11-11-11-11-11-------------------------|
|--------------------------------------------------------------------------|
|--------------------------------------------------------------------------|
|--------------------------------------------------------------------------|
            
Submit corrections

↑ Back to top | Tablatures and chords for acoustic guitar and electric guitar, ukulele, drums are parodies/interpretations of the original songs. You may use it for private study, scholarship, research or language learning purposes only