» » »

Sweet - Wig Wam Bam Bass

Artists:  A B C D E F G H I J K L M N O P Q R S T U V W X Y Z # 

Wig Wam Bam Bass

(ver. 1) Click to play this song!
Sweet
 Rating:
4/5 (4 votes)

 Wig Wam Bam lessons Tabs too difficult? Try these video lessons and learn fast
 
                Intro
G-----------------------------------------|----------------------------------------------|
D-----------------------------------------|----------------------------------------------|
A----6h7-777--6h7-777--6h7-777--6h7-777-|-6h7-777--6h7-777--6h7-777--6h7-777--7----------|
E-----------------------------------------|----------------------------------------------|

Verse
G----------------------------------------------------------------|
D----------------------------------------------------------------|
A-------------6h7-777-6h7-777-------6h7-777-6h7-777--------------|
E-------55-7------------------55-77-----------------55-7---------|

Pre-Chorus
G------------------------------------------|--------------------------------------------|
D------------------------------------------|--------------------------------------------|
A------------------------------------------|--------------------------------------------|
E----- 4h5-555--4h5-555--4h5-555--4h5-555-|---6h7-777--6h7-777--6h7-777--6h7-777--------|

Chorus
G-----------------------------------------------------|
D-----------------------------------------------------|
A--7-7-7-77-------7-7-7-77-------7-7-7-77-------------|
E-----------55-77----------55-77-----------55-77------|

Post-Chorus
G-----------------------------------------|-------------------------------------------|
D-----------------------------------------|-------------------------------------------|
A-----------------------------------------|-------------------------------------------|
E-----4h5-55--4h5-555--4h5-555--4h5-555-|---6h7-777--6h7-777--6h7-777--6h7-777--------|

Verse
G----------------------------------------------------------------|
D----------------------------------------------------------------|
A-------------6h7-777-6h7-777-------6h7-777-6h7-777--------------|
E-------55-7------------------55-77-----------------55-7---------|

Pre-Chorus
G------------------------------------------|--------------------------------------------|
D------------------------------------------|--------------------------------------------|
A------------------------------------------|--------------------------------------------|
E----- 4h5-555--4h5-555--4h5-555--4h5-555-|---6h7-777--6h7-777--6h7-777--6h7-777--------|

Chorus
G-----------------------------------------------------|
D-----------------------------------------------------|
A--7-7-7-77-------7-7-7-77-------7-7-7-77-------------|
E-----------55-77----------55-77-----------55-77------|

Post-Chorus
G-----------------------------------------|-------------------------------------------|
D-----------------------------------------|-------------------------------------------|
A-----------------------------------------|-------------------------------------------|
E-----4h5-55--4h5-555--4h5-555--4h5-555-|---6h7-777--6h7-777--6h7-777--6h7-777--------|


Bridge
G-----------------------------------------|------------------------------------------|
D-----------------------------------------|------------------------------------------|
A-----------------------------------------|--6h7-777--6h7-777--6h7-777--6h7-777------|  x2
E---6h7-777--6h7-777--6h7-777--6h7-777--|--------------------------------------------|

G--------------------------------------------|
D--------------------------------------------|
A----8h9-999--8h9-999--8h9-999--8h9-999------|
E--------------------------------------------|

Final Verse (without bass or guitar till the end)
G-------------------------------------------------------|
D-------------------------------------------------------|
A-------------------------------------------------------|
E-----------------------------------------------77-9----|

Final Pre-Chorus
G------------------------------------------|-------------------------------------------|
D------------------------------------------|-------------------------------------------|
A------------------------------------------|-------------------------------------------|
E----7h8-888--7h8-888--7h8-888--7h8-888--|---8h9-999--8h9-999--8h9-999--8h9-999--------|

Final Chorus
G-------------------------------------------------------|
D-------------------------------------------------------|
A---9-9-9-99--------9-9-9-99--------9-9-9-99------------|
E-------------77-99-----------77-99-----------77-99-----|

Final Post-Chorus
G------------------------------------------|---------------------------------------------|
D------------------------------------------|---------------------------------------------|
A------------------------------------------|--------------------9(let ring)--------------|
E----7h8-888--7h8-888--7h8-888--7h8-888--|--8h9-999--8h9-999-----------------------------|

Repeat Final Chorus and Final Post-Chorus till the end.

HAVE FUN!
Please leave a feedback behind ;)
            
Submit corrections


        Wig Wam Bam lessons Hard to play? Try these video lessons and learn fast Wig Wam Bam lessons
        
↑ Back to top | Tablatures and chords for acoustic guitar and electric guitar, ukulele, drums are parodies/interpretations of the original songs. You may use it for private study, scholarship, research or language learning purposes only