Home » S » Sweet »

Sweet - Sweet Fa Tabs

Artists:  A B C D E F G H I J K L M N O P Q R S T U V W X Y Z # 

Sweet Fa Tabs

(ver. 1) Click to play this song!
Sweet
[Intro] 
e|------------------------------------------------------|
B|------------------------------------------------------|
G|------------------------------------------------------|
D|------------------------------------------------------| x8
A|------------------------------------------------------|
E|-0-2-2-2-2-2-2-2-2-2-2-2------------------------------|
(Slide down to 0 first time. 12 notes, it's easier to
listen to rhythm than count notes,0:07)

e|--------------|     |-------|
B|--------------|     |-------|
G|--8--7--4-----|     |-------|
D|--8--7--4-----| x3  |--4-2--|
A|--6--7--2-----|     |--4-2--|
E|--6--5--2-----|     |--2-0--|

e|------------------------------------------------------------|
B|--10--9h10--9--7--8--7h8--7------9h10--9h10--9--8--7--------|
G|--9---9-----9--7--7--7----7------9-----9-----9--7--7--------|
D|--11--9h11--9--7--9--7h9--7------9h11--9h11--9--9--7--------| x2
A|------------------------------------------------------------|
E|------------------------------------------------------------|

e|------------------------------------------------------|
B|------------------------------------------------------|
G|------------------------------------------------------|
D|------------------------------------------------------| x4
A|------------------------------------------------------|
E|-0-2-2-2-2-2-2-2-2-2-2-2------------------------------|
(Slide down to 0 first time)

e|--------------|     |-------|
B|--------------|     |-------|
G|--8--7--4-----|     |-------|
D|--8--7--4-----| x3  |--4-2--|
A|--6--7--2-----|     |--4-2--|
E|--6--5--2-----|     |--2-0--|


[Verse]
Well it's Friday night...
e|------------------------------------------------------|
B|------------------------------------------------------|
G|--9---------------------------------------------------|
D|--9---------------------------------------------------| x8
A|--7---------------------------------------------------|
E|----0-0-0-0-0-0-0-0-0-0-0-----------------------------|
(Played like intro. Let chord ring)


[Chorus]
Sweet F.A., never gonna...         Sweeeeeet...F.A.
e|------------------------|     |-----------------------|
B|------------------------|     |-----------------------|
G|--4--2-4----------------|     |--4/-------------------|
D|--4--2-4----------------| x3  |--4/-------------------|
A|--2--2-2----------------|     |--2/-------------------|
E|--2----2----------------|     |--2/-------------------|
                                (Hold then slide up slowly, 1:35)


[Bridge 1]
e|---------------------------------------------------|
B|---------------------------------------------------|
G|-7/9----9--11---11--14----14-15~-------------------|
D|-----11-------13-------16--------------------------|
A|---------------------------------------------------|
E|---------------------------------------------------|

e|---------------------------------------------------|
B|---------------------------------------------------|
G|-7/9----9--11----11--14----14-17~------------------|
D|-----11-------13--------16-------------------------|
A|---------------------------------------------------|
E|---------------------------------------------------|


[Intro]
e|------------------------------------------------------|
B|------------------------------------------------------|
G|------------------------------------------------------|
D|------------------------------------------------------| x4
A|------------------------------------------------------|
E|-0-2-2-2-2-2-2-2-2-2-2-2------------------------------|
(Slide down to 0 first time)

e|--------------|     |-------|
B|--------------|     |-------|
G|--8--7--4-----|     |-------|
D|--8--7--4-----| x3  |--4-2--|
A|--6--7--2-----|     |--4-2--|
E|--6--5--2-----|     |--2-0--|


[Verse]
Try to pull me out...
e|------------------------------------------------------|
B|------------------------------------------------------|
G|--9---------------------------------------------------|
D|--9---------------------------------------------------| x8
A|--7---------------------------------------------------|
E|----0-0-0-0-0-0-0-0-0-0-0-----------------------------|
(Played like intro. let chord ring)

[Chorus]
Sweet F.A., never gonna...         Sweeeeeet...F.A.
e|------------------------|     |-----------------------|
B|------------------------|     |-----------------------|
G|--4--2-4----------------|     |--4/-------------------|
D|--4--2-4----------------| x3  |--4/-------------------|
A|--2--2-2----------------|     |--2/-------------------|
E|--2----2----------------|     |--2/-------------------|
                                 (Hold then slide up slowly, 1:35)


[Bridge 1]
e|---------------------------------------------------|
B|---------------------------------------------------|
G|-7/9----9--11----11--14----14-15~------------------|
D|-----11-------13--------16-------------------------|
A|---------------------------------------------------|
E|---------------------------------------------------|

e|---------------------------------------------------|
B|---------------------------------------------------|
G|-7/9----9--11----11--14----14-17~------------------|
D|-----11-------13--------16-------------------------|
A|---------------------------------------------------|
E|---------------------------------------------------|


[Intro]
e|------------------------------------------------------|
B|------------------------------------------------------|
G|------------------------------------------------------|
D|------------------------------------------------------| x4
A|------------------------------------------------------|
E|-0-2-2-2-2-2-2-2-2-2-2-2------------------------------|
(Slide down to 0 first time)


[Bridge 2]
e|------------------------------------------------------|
B|------------------------------------------------------|
G|------------------------------------------------------|
D|----------4----------4----------4--2------------------|
A|-------------------------------------4-2--------------|
E|--2-2-2-2----2-2-2-2----2-2-2-2----------5-2----------|
                                                           x2 (Entire bridge 2) 
e|------------------------------------------------------|
B|------------------------------------------------------|
G|-----------------------------------2-----2------------|
D|----------4----------4----------4----4-2---4----------|
A|------------------------------------------------------|
E|--2-2-2-2----2-2-2-2----2-2-2-2-----------------------|


[Solo]
AH AH AH F.A.
e|--------------------------------------------------------------------15------|
B|-----------10-10-10-10-10-10-10p9p8-13-10----------13~-----15p12------------|
G|------------------------------------------12p10h12---------------12---------|
D|----------------------------------------------------------------------------|
A|----------------------------------------------------------------------------|
E|----------------------------------------------------------------------------|

e|------------8-8------12-----------------------------------------------------|
B|----10-10-8-----10-8----10b-----12-12-12-12-12h14~--------------------------|
G|----------------------------------------------------------------------------|
D|----------------------------------------------------------------------------|
A|----------------------------------------------------------------------------|
E|----------------------------------------------------------------------------|
(3:21)


[Intro]
e|--------------|     |-------|
B|--------------|     |-------|
G|--8--7--4-----|     |-------|
D|--8--7--4-----| x3  |--4-2--|
A|--6--7--2-----|     |--4-2--|
E|--6--5--2-----|     |--2-0--|


[Verse]
Yeah the hurstle's now...
e|------------------------------------------------------|
B|------------------------------------------------------|
G|--9---------------------------------------------------|
D|--9---------------------------------------------------| x8
A|--7---------------------------------------------------|
E|----0-0-0-0-0-0-0-0-0-0-0-----------------------------|
(Played like intro. Let chord ring)


[Chorus]
Sweet F.A., never gonna...         Sweeeeeet...F.A.
e|------------------------|     |-----------------------|
B|------------------------|     |-----------------------|
G|--4--2-4----------------|     |--4/-------------------|
D|--4--2-4----------------| x3  |--4/-------------------|
A|--2--2-2----------------|     |--2/-------------------|
E|--2----2----------------|     |--2/-------------------|
                                 (Hold then slide up slowly, 1:35)


[Bridge 1]
e|---------------------------------------------------|
B|---------------------------------------------------|
G|-7/9----9--11----11--14----14-15~------------------|
D|-----11-------13--------16-------------------------|
A|---------------------------------------------------|
E|---------------------------------------------------|

e|---------------------------------------------------|
B|---------------------------------------------------|
G|-7/9----9--11----11--14----14-17~------------------|
D|-----11-------13--------16-------------------------|
A|---------------------------------------------------|
E|---------------------------------------------------|


[Intro]
e|------------------------------------------------------|
B|------------------------------------------------------|
G|------------------------------------------------------|
D|------------------------------------------------------| x4
A|------------------------------------------------------|
E|-0-2-2-2-2-2-2-2-2-2-2-2------------------------------|
(Slide down to 0 first time)


[Bridge 2]
e|------------------------------------------------------|
B|------------------------------------------------------|
G|------------------------------------------------------|
D|----------4----------4----------4--2------------------|
A|-------------------------------------4-2--------------|
E|--2-2-2-2----2-2-2-2----2-2-2-2----------5-2----------|
                                                           x2 (Entire bridge 2) 
e|------------------------------------------------------|
B|------------------------------------------------------|
G|-----------------------------------2-----2------------|
D|----------4----------4----------4----4-2---4----------|
A|------------------------------------------------------|
E|--2-2-2-2----2-2-2-2----2-2-2-2-----------------------|            
Submit corrections

↑ Back to top | Tablatures and chords for acoustic guitar and electric guitar, ukulele, drums are parodies/interpretations of the original songs. You may use it for private study, scholarship, research or language learning purposes only