Home » S » Supremes »

Supremes - Reflections Bass

Artists:  A B C D E F G H I J K L M N O P Q R S T U V W X Y Z # 

Reflections Bass

(ver. 1) Click to play this song!
Supremes
Intro:
                 .        .         .        .
G|-------------|--------3---------3-3------3---|
D|-PSYCHEDELIC-|-------3-3-------3-3------3-3--|
A|----START----|-1--------1------------------1-|
E|-------------|-------------------------------|

Verse:
G|-3-3-33-3---------------------------------------|
D|--3-3--3---1-3-3-33-3---2-4-4-44-4--------------|
A|--------------3-3--3-------4-4--4---2-4-4-44-44-|
E|---------------------------------------4-4--4---|

Chorus 1:
G------------------------------------------------------------------|
D------------------------------------------------------------------|
A---1-4-4-4-4-4-4----1-4-4-4-4-4-4---1-4-4-4-4-4-4---1-4-4-4-4-4-4-|
E--2----------------2---------------2---------------2--------------|
              .                                             .
G|----------2-3-------------------------------------------2-3-|
D|-4-4-44-4-----3-3-3---6-6-66-6---6-6-6-6---6-5-4-4-44-4-----|
A|--4-4--4---------------6-6--6-------------------4-4--4------|
E|------------------------------------------------------------|

Interlude 1:
        .       .         .
G|----3---------3-------3----|
D|---3-3-------3-------3-3---|
A|------1-----------------1--|
E|---------------------------|

Repeat Verse:

Chorus 2:
G|-----------------------------------------------------------------|
D|-----------------------------------------------------------------|
A|--1-4-4-4-4-4-4----1-4-4-4-4-4-4---1-4-4-4-4-4-4---1-4-4-4-4-4-4-|
E|-2----------------2---------------2---------------2--------------|
              .
G|----------2-3----------------------------------------------|
D|-4-4-44-4-----3-3-3---6-6-66-6---6-6-6-6---6-5-44-4-4---4--|
A|--4-4--4---------------6-6--6--------------------4-4-----1-|
E|-----------------------------------------------------------|

Bridge:                                           .
G|--------------------------------------------------|
D|-1-0-5----5-55--55-5---1-0-5---5-55--55-5---1-0-5-|
A|---------5-5---5--5-----------5-5---5--5----------|
E|--------------------------------------------------|
   .   .             .         .          .       .
G|-------------3-3---3-------3--------3-3-3-----3---|
D|-4---4---3-3------3-------3-3------3-3-3-----3-3--|
A|-----------------------------1------------------1-|
E|--------------------------------------------------|

Repeat Verse:

Chorus 3:
G|-----------------------------------------------------------------|
D|-----------------------------------------------------------------|
A|--1-4-4-4-4-4-4----1-4-4-4-4-4-4---1-4-4-4-4-4-4---1-4-4-4-4-4-4-|
E|-2----------------2---------------2---------------2--------------|
              .
G|----------2-3--------------------------------------------|
D|-4-4-44-4-----3-3-3---6-6-66-6---6-6-6-6---6-5-4-4-44-44-|
A|--4-4--4---------------6-6--6-------------------4-4--4---|
E|---------------------------------------------------------|

Outro:                                         (Repeat To Fade/End
G|-----------------------------------------------------------------|
D|-----------------------------------------------------------------|
A|--1-4-4-4-4-4-4----1-4-4-4-4-4-4---1-4-4-4-4-4-4---1-4-4-4-4-4-4-|
E|-2----------------2---------------2---------------2--------------|
            
Submit corrections

↑ Back to top | Tablatures and chords for acoustic guitar and electric guitar, ukulele, drums are parodies/interpretations of the original songs. You may use it for private study, scholarship, research or language learning purposes only