Home » S » Supremes »

Supremes - Baby Love Tabs

Artists:  A B C D E F G H I J K L M N O P Q R S T U V W X Y Z # 

Baby Love Tabs

(ver. 1) Click to play this song!
Supremes
Gtr I (E A D G B E) - 'Robert White - Electric Guitar'


 Intro
  Q=130(8=s8)
  Dm          Bb         G       F    C
 4/4
  Gtr I
   W          W          H.      Q    Q  Q  H      W
|-10--------|-6--------|-3-------1--|-0----------|------||
|-10--------|-6--------|-3-------1--|-1----------|------||
|-10--------|-7--------|-4-------2--|-0----------|------||
|-----------|----------|------------|------------|------||
|-----------|----------|------------|------------|------||
|-----------|----------|------------|------------|------||


   1st - 3rd Verses
    $
    C             C/Bb          A7            Dm
    q  q  q  q    q  q  q  q    q  q  q  q    q  q  q  q
||--------------|-------------|-5--5--5--5--|-5--5--5--5---|
||o-5--5--5--5--|-5--5--5--5--|-5--5--5--5--|-6--6--6--6---|
||--5--5--5--5--|-5--5--5--5--|-6--6--6--6--|-7--7--7--7---|
||--5--5--5--5--|-5--5--5--5--|-5--5--5--5--|-7--7--7--7---|
||o-3--3--3--3--|-------------|-7--7--7--7--|-5--5--5--5---|
||--------------|-6--6--6--6--|-5--5--5--5--|--------------|


                C             F6            C
  q  q  q  q    q  q  q  q    q  q  q  q    q  q  q  q
|-5--5--5--5--|-------------|-------------|-------------|
|-6--6--6--6--|-5--5--5--5--|-6--6--6--6--|-5--5--5--5--|
|-7--7--7--7--|-5--5--5--5--|-7--7--7--7--|-5--5--5--5--|
|-7--7--7--7--|-5--5--5--5--|-7--7--7--7--|-5--5--5--5--|
|-5--5--5--5--|-3--3--3--3--|-8--8--8--8--|-3--3--3--3--|
|-------------|-------------|-------------|-------------|


                             1.
                    To Coda
  F6            C             F       C/E     Dm    G7
  q  q  q  q    q  q  q  q     q   q  q  q    q  q  q  q
|-------------|-------------|---------------|-5--5--3--3---||
|-6--6--6--6--|-5--5--5--5--|-10--10--8--8--|-6--6--3--3--o||
|-7--7--7--7--|-5--5--5--5--|-10--10--5--5--|-7--7--4--4---||
|-7--7--7--7--|-5--5--5--5--|-10--10--5--5--|-7--7--3--3---||
|-8--8--8--8--|-3--3--3--3--|--8---8--7--7--|-5--5--5--5--o||
|-------------|-------------|---------------|-------3--3---||


                                Interlude
  2.
  F       C/E     Dm    G7       C             C/Bb
   q   q  q  q    q  q  q  q     q  q  q  q    q  q  q  q
|---------------|-5--5--3--3--||-------------|-------------|
|-10--10--8--8--|-6--6--3--3--||-5--5--5--5--|-5--5--5--5--|
|-10--10--5--5--|-7--7--4--4--||-5--5--5--5--|-5--5--5--5--|
|-10--10--5--5--|-7--7--3--3--||-5--5--5--5--|-5--5--5--5--|
|--8---8--7--7--|-5--5--5--5--||-3--3--3--3--|-------------|
|---------------|-------3--3--||-------------|-6--6--6--6--|


  A7            Dm                          C
  q  q  q  q    q  q  q  q    q  q  q  q    q  q  q  q
|-5--5--5--5--|-5--5--5--5--|-5--5--5--5--|-------------|
|-5--5--5--5--|-6--6--6--6--|-6--6--6--6--|-5--5--5--5--|
|-6--6--6--6--|-7--7--7--7--|-7--7--7--7--|-5--5--5--5--|
|-5--5--5--5--|-7--7--7--7--|-7--7--7--7--|-5--5--5--5--|
|-7--7--7--7--|-5--5--5--5--|-5--5--5--5--|-3--3--3--3--|
|-5--5--5--5--|-------------|-------------|-------------|


  F6            C             F6            C
  q  q  q  q    q  q  q  q    q  q  q  q    q  q  q  q
|-------------|-------------|-------------|-------------|
|-6--6--6--6--|-5--5--5--5--|-6--6--6--6--|-5--5--5--5--|
|-7--7--7--7--|-5--5--5--5--|-7--7--7--7--|-5--5--5--5--|
|-7--7--7--7--|-5--5--5--5--|-7--7--7--7--|-5--5--5--5--|
|-8--8--8--8--|-3--3--3--3--|-8--8--8--8--|-3--3--3--3--|
|-------------|-------------|-------------|-------------|


              D.S. al Coda   &
  F       C/E     Dm    G7      F       C/E     Dm    G7
   q   q  q  q    q  q  H        q   q  q  q    q  q  q  q
|---------------|-5--5--3----||---------------|-5--5--3--3--||
|-10--10--8--8--|-6--6--3----||-10--10--8--8--|-6--6--3--3--||
|-10--10--5--5--|-7--7--4----||-10--10--5--5--|-7--7--4--4--||
|-10--10--5--5--|-7--7--3----||-10--10--5--5--|-7--7--3--3--||
|--8---8--7--7--|-5--5--5----||--8---8--7--7--|-5--5--5--5--||
|---------------|-------3----||---------------|-------3--3--||


 Bridge                       Outro
  Db                           Db            Db/B
  Q.   E Q.   E   W            q  q  q  q    q  q  q  q
|---------------|----------||--------------|-------------|
|-6----6-6----6-|-6--------||o-6--6--6--6--|-6--6--6--6--|
|-6----6-6----6-|-6--------||--6--6--6--6--|-6--6--6--6--|
|-6----6-6----6-|-6--------||--6--6--6--6--|-6--6--6--6--|
|-4----4-4----4-|-4--------||o-4--4--4--4--|-------------|
|---------------|----------||--------------|-7--7--7--7--|


  Bb7           Ebm                         Db
  q  q  q  q    q  q  q  q    q  q  q  q    q  q  q  q
|-6--6--6--6--|-6--6--6--6--|-6--6--6--6--|-------------|
|-6--6--6--6--|-7--7--7--7--|-7--7--7--7--|-6--6--6--6--|
|-7--7--7--7--|-8--8--8--8--|-8--8--8--8--|-6--6--6--6--|
|-6--6--6--6--|-8--8--8--8--|-8--8--8--8--|-6--6--6--6--|
|-8--8--8--8--|-6--6--6--6--|-6--6--6--6--|-4--4--4--4--|
|-6--6--6--6--|-------------|-------------|-------------|


  Gb6           Db            Gb6
  q  q  q  q    q  q  q  q    q  q  q  q
|-------------|-------------|-------------|
|-7--7--7--7--|-6--6--6--6--|-7--7--7--7--|
|-8--8--8--8--|-6--6--6--6--|-8--8--8--8--|
|-8--8--8--8--|-6--6--6--6--|-8--8--8--8--|
|-9--9--9--9--|-4--4--4--4--|-9--9--9--9--|
|-------------|-------------|-------------|


  Db            Gb      Db/F    Ebm   Ab7
  q  q  q  q     q   q  q  q    q  q  q  q
|-------------|---------------|-6--6--4--4---||
|-6--6--6--6--|-11--11--9--9--|-7--7--4--4--o||
|-6--6--6--6--|-11--11--6--6--|-8--8--5--5---||
|-6--6--6--6--|-11--11--6--6--|-8--8--4--4---||
|-4--4--4--4--|--9---9--8--8--|-6--6--6--6--o||
|-------------|---------------|-------4--4---||

            
Submit corrections

↑ Back to top | Tablatures and chords for acoustic guitar and electric guitar, ukulele, drums are parodies/interpretations of the original songs. You may use it for private study, scholarship, research or language learning purposes only