Home » S » Superjesus »

Superjesus - Dead Ended Tabs

Artists:  A B C D E F G H I J K L M N O P Q R S T U V W X Y Z # 

Dead Ended Tabs

(ver. 1) Click to play this song!
Superjesus
This one is in Drop D tuning, with a capo placed on the 2nd
fret. The tab is relative to the capo. Enjoy :)

INTRO/VERSE RIFF:
E-|--------------------------------------|-
B-|--------------------------------------|-
G-|--------------------------------------|-
D-|-0-0-0-----0-3-5-6--0-0-0-----0-3-5-6-|-
A-|-0-0-0--3--0-3-5-6--0-0-0--3--0-3-5-6-|-
D-|-0-0-0-----0-3-5-6--0-0-0-----0-3-5-6-|-

E-|--------------------------------------|-
B-|--------------------------------------|-
G-|--------------------------------------|-
D-|-0-0-0-----0-3-5-6--0-0-0-----0-6-5-3-|-
A-|-0-0-0--3--0-3-5-6--0-0-0--3--0-6-5-3-|-
D-|-0-0-0-----0-3-5-6--0-0-0-----0-6-5-3-|-

CHORUS RIFF:
E-|--------------------------------|-
B-|--------------------------------|-
G-|--------------------------------|-
D-|-2p0-0--2p0-0--2p0-0--2p0-2p0-0-|-
A-|-2p0-0--2p0-0--2p0-0--2p0-2p0-0-|-
D-|-2p0-0--2p0-0--2p0-0--2p0-2p0-0-|-

BRIDGE: (ECHO-DELAY BIT)
E-|---------------------------------|-
B-|---------------------------------|-
G-|---------------------------------|-
D-|-0h2-2-2-0h2-2-0h2-2-2-2-2---2-2-|-
A-|-0---0-0-0---0-0---0-0-0-0h3-3-3-|-
D-|---------------------------------|-

THEN PLAY THESE CHORS:
E-|--------------------------|-
B-|-(3)-----2-----(3)-----2--|-
G-|--2------2------2------2--|-
D-|--0------2------0------2--|-
A-|--0------0------0------0--|-
D-|--0-------------0---------|-

E-|---------------------|-
B-|---------------------|-
G-|----5------5---------|-
D-|---------------0-3-5-|-
A-|-0--3---0--3---0-3-5-|-
D-|-0------0------0-3-5-|-
            
Submit corrections

↑ Back to top | Tablatures and chords for acoustic guitar and electric guitar, ukulele, drums are parodies/interpretations of the original songs. You may use it for private study, scholarship, research or language learning purposes only