Home » S » Superdrag »

Superdrag - Cynicality Tabs

Artists:  A B C D E F G H I J K L M N O P Q R S T U V W X Y Z # 

Cynicality Tabs

(ver. 1) Click to play this song!
Superdrag
Intro: (Both Guitars)    
	e|--(repeat 7x)-----|-(then...)-------------|
	B|------------------|-----------------------|
	G|-----9-9-----9----|---9-9-9-9-9-9-9\------|
	D|-----9-9-----9----|---9-9-9-9-9-9-9\------|
	A|-----7-7-----7----|---7-7-7-7-7-7-7\------|
	E|-0-0-----0-0------|-0---------------------|

	(Bass - 3x (enters 5th time))
	G|------------------|-----------------------|
	D|------------------|-----------------------|
	A|------------------|---7-7---7-7-7-7\------|
	E|-0-0-4-4-0-0-12\--|-0-----0---------------|


Verse: (Both Guitars, Bass follows w/root notes)  
	 E(5)              C(5)
	e|-------------------------------------------|
	B|-------------------------------------------|
	G|-9-9-9-9-9-9-9-9-5-5-5-5-5-5-5-5-----------|
	D|-9-9-9-9-9-9-9-9-5-5-5-5-5-5-5-5-----------|
	A|-7-7-7-7-7-7-7-7-3-3-3-3-3-3-3-3-----------|
	E|-------------------------------------------|

	 G(5)              B(5)
	e|-------------------------------------------|
	B|-------------------------------------------|
	G|-------------------------------------------|
	D|-5-5-5-5-5-5-5-5-9-9-9-9-9-9-9-9-----------|
	A|-5-5-5-5-5-5-5-5-9-9-9-9-9-9-9-9-----------|
	E|-3-3-3-3-3-3-3-3-7-7-7-7-7-7-7-7-----------|

Prechorus: (each bar played 2x)
	 (Cmaj7)		  (Gmaj7)
Guitar 1: (Higher notes actually overdubs... enter later)
	e|-3-2-3-2-3-2-3-2-|-3-2-3-2-3-2-3-2-|
	B|(x)--------------|-----------------|
	G|(x)--------------|-----------------|
	D|-5-4-5-4-5-4-5-4-|-5-4-5-4-5-4-5-4-|
	A|-----------------|-----------------|
	E|-----------------|-----------------|
Guitar 2:
	e|-----------------|-----------------|
	B|-----------------|-----------------|
	G|-4---------------|-11--------------|
	D|-5---------------|-12--------------|
	A|-3---------------|-10--------------|
	E|-----------------|-----------------|
Bass:
	G|-----------------|-----------------|
	D|-----------------|-----------------|
	A|-3-3-3-3-3-3-3-3-|-----------------|
	E|-----------------|-3-2-3-2-3-2-3-2-|


Chorus:
Guitar 1: cont similie

Guitar 2: soft power chords...
		C - G - A - B - C progression (see chorus below)
Bass: follow guitar 2...

Falloff after 2nd chorus:
	e|-0\---------|
	B|-0\---------|
	G|-7\---------| with feedback/whammy bar
	D|-0\---------|
	A|-7\---------|
	E|-0\---------|

Solo: (over verse progression)
	e|--(a few times)--|-------------------------------|
	B|-----------------|-------------8--7---7--8-10-8\-|
	G|-7-9-9-7-9-7-9-7-|-7-9-9-7-9-7------x------------|
	D|-----------------|-------------------------------|
	A|-----------------|-------------------------------|
	E|-----------------|-------------------------------|

Outro: repeat intro



........
Chord changes:

Verse:
	E                  C           G
	cynicality couldnt comfort me again
	  
	wanna die and
	B
	wanna die anne
	E                       C         G
	if its you and me its a casulaty again

	wanna try and
	B
	wanna try and

Prechorus:
	C       G
	make it happen
	C	      G
	cause nothins happening

Chorus:
		C
	nothins happening
		G
	nothins happening
		A
	is this happening?
		B
	is this happening?
		C	
	is this happening?

	i will not expect it can only bring me down
	further down yea
	further down yea
	youre in full effect i can only bring you down
	turn around yea
	turn around yea

	make it happen
	cause nothins happening
	nothins happening
	nothins happening
	is this happening?
	is this happening?
	is this happening?
            
Submit corrections

↑ Back to top | Tablatures and chords for acoustic guitar and electric guitar, ukulele, drums are parodies/interpretations of the original songs. You may use it for private study, scholarship, research or language learning purposes only