» » »

Sundara Karma - Waves Chords

Artists:  A B C D E F G H I J K L M N O P Q R S T U V W X Y Z # 

Waves Chords

(ver. 1) Click to play this song!
Sundara Karma
 Rating:
2.8/5 (20 votes)

 Waves  lessons Tabs too difficult? Try these video lessons and learn fast
 
                uning: Standard

Main Riff:

e|---------------------------------------------------------------------------|
B|--6--8--8---6--8--8---6--8--6--------------6--8--6-------------------------|
G|-------------------------------7--5--7--7-----------7--5--7--7-------------|
D|---------------------------------------------------------------------------|
A|---------------------------------------------------------------------------|
E|---------------------------------------------------------------------------|

e|------------------------------------|
B|--6--8--6---------------------------|
G|-----------7--5--7--7---------------|
D|------------------------------------|
A|------------------------------------|
E|------------------------------------|

Chord Picking Pattern:

e|---------------------------------------------------------------------------|
B|-------6-----------6-----------6-----------6-------------------------------|
G|---------7-----------7-----------7-----------7-----------------------------|
D|-----7-----7-----7-----7-----7-----7-----7-----7-----ETC.------------------|
A|--5-----------5-----------5-----------5------------------------------------|
E|---------------------------------------------------------------------------|


Chords and Lyrics:

Dm
I follow the Waves to reach the Divine,

Dm                                          Gm           Dm
Walk through the doors, and tumble into the wild

e|--9b15--9b15--9b15--9b15--9b15--9b15--9b15--9b15--9b15--9b15~~~~~---------|
B|--------------------------------------------------------------------------|
G|--------------------------------------------------------------------------|
D|--------------------------------------------------------------------------|
A|--------------------------------------------------------------------------|
E|--------------------------------------------------------------------------|

Dm
The gaze at the Sun, The Moon and the stars

Dm                                               Gm            Dm
Reach for the light and give yourself up to your heart


Bb                 Dm                    F              Bb
Throw me down with your sweet force, and take my breath away

Bb            Dm                F                Bb            Dm
Dive into the crushing sound of the last falling wave, uuh oh



[Main Riff Begins Over Chords And Vocals]


Bb               Dm            F                             Bb
I feel it around me, soon I'll leave, oh please don't let me go

Bb               Dm                   F       Bb
I feel it around eit, it starts to get louder, louder!



[Main Riff Intensifies] then Dm picked


Dm
I follow the Waves to reach the Divine,

Dm
Rituals begun now,

Dm                          Gm           Dm
We're all drifting into the night!


[Main Riff Begins Again]


Bb               Dm            F                             Bb
I feel it around me, soon I'll leave, oh please don't let me go

Bb               Dm                   F       Bb
I feel it around eit, it starts to get louder, louder!



[Main Riff Intensifies]


Bb                 Dm                    F              Bb
Throw me down with your sweet force, and take my breath away

Bb            Dm                F                Bb            Dm
Dive into the crushing sound of the last falling wave, uuh oh


[Main Riff Continues With Screeching Guitar]

[Fade]            
Submit corrections


        Waves  lessons Hard to play? Try these video lessons and learn fast Waves  lessons
        
↑ Back to top | Tablatures and chords for acoustic guitar and electric guitar, ukulele, drums are parodies/interpretations of the original songs. You may use it for private study, scholarship, research or language learning purposes only