» » »

Sundara Karma - The Night Tabs

Artists:  A B C D E F G H I J K L M N O P Q R S T U V W X Y Z # 

The Night Tabs

(ver. 1) Click to play this song!
Sundara Karma
 Rating:
3.6/5 (20 votes)

 The Night  lessons Tabs too difficult? Try these video lessons and learn fast
 
                [Intro]

C - Am - F (x2)


(slight delay to create "doubled" notes)

eb|-15-17-22-17-20-| (x8)
Bb|----------------|
Gb|----------------|
Db|----------------|
Ab|----------------|
Eb|----------------|

[Verse 1]
C                           D*       Am    F
Promises always leaking through the day

C                             D*    Am     F
Happiness says the daylight sails away


G                    Am           F
But I hear those echoes in myself


[Chorus]

eb|-15-17-22-17-20-| (x8)
Bb|----------------|
Gb|----------------|
Db|----------------|
Ab|----------------|
Eb|----------------|

C
Honey I'm staying in the night


I can see your darkness in the light

Am                                     F
Honey I'm staying in the night, in the night

C
Flesh is flesh, and blood is love

           
A wild desire for the night

Am                                      F
Honey I'm staying in the night, in the night


[Verse 2]

[Guitar 2 with heavy reverb begins playing]
[listen for rhythm...]
eb|------------| (x2)
Bb|-5~-5b6~----|
Gb|------------|
Db|------------|
Ab|------------|
Eb|------------|


Falling with a heavy heart has marked


I will leave for moments in the dark


But I hear those echoes in myself



[Chorus](2x)

[Instrumental Bridge]

eb|-----------------------------5-8-5~-5~-5~-----------| (x2)
Bb|-5b6~-5b6~-5b6~-5b6~------8---------------8~-8s10s0-|
Gb|----------------------------------------------------|
Db|----------------------------------------------------|
Ab|----------------------------------------------------|
Eb|----------------------------------------------------|

eb|-----------------------------5-8-5-8s10-8---8~------------| (x1)
Bb|-5b6~-5b6~-5b6~-5b6~------8---------------8-----10p8h10s0-|
Gb|----------------------------------------------------------|
Db|----------------------------------------------------------|
Ab|----------------------------------------------------------|
Eb|----------------------------------------------------------|


eb|-----------------------------5-8-5-10-10b12~~-8-----------| (x1)
Bb|-5b6~-5b6~-5b6~-5b6~------8---------------------10p8h10s0-|
Gb|----------------------------------------------------------|
Db|----------------------------------------------------------|
Ab|----------------------------------------------------------|
Eb|----------------------------------------------------------|

[Chorus]            
Submit corrections


        The Night  lessons Hard to play? Try these video lessons and learn fast The Night  lessons
        
↑ Back to top | Tablatures and chords for acoustic guitar and electric guitar, ukulele, drums are parodies/interpretations of the original songs. You may use it for private study, scholarship, research or language learning purposes only