Home » S » Sum 41 »

Sum 41 - War Tabs

Artists:  A B C D E F G H I J K L M N O P Q R S T U V W X Y Z # 

War Tabs

(ver. 1) Click to play this song!
Sum 41
[Intro/General Strumming Pattern]
        
                   Bm                                  D
e|--x-x---2---2---2---2-2-2-2---2-2-2--------2---2---2---2-2-2-2---2-2-2----------|
B|--x-x---3---3---3---3-3-3-3---3-3-3--------3---3---3---3-3-3-3---3-3-3----------|
G|--x-x---4---4---4---4-4-4-4---4-4-4--------2---2---2---2-2-2-2---2-2-2----------|
D|--x-x---4---4---4---4-4-4-4---4-4-4--------0---0---0---0-0-0-0---0-0-0----------|
A|--x-x---2---2---2---2-2-2-2---2-2-2---------------------------------------------|
E|--x-x---------------------------------------------------------------------------|
          D   D   D(D)U D U D   D U D U      D   D   D(D)U D U D   D U D U

                  A                                E
e|---0---0---0---0-0-0-0---0-0-0--------0---0---0---0-0-0-0-----0-0---------------|
B|---2---2---2---2-2-2-2---2-2-2--------0---0---0---0-0-0-0-----0-0---------------|
G|---2---2---2---2-2-2-2---2-2-2--------1---1---1---1-1-1-1-----1-1---------------|
D|---2---2---2---2-2-2-2---2-2-2--------2---2---2---2-2-2-2-----2-2---------------|
A|---0---0---0---0-0-0-0---0-0-0--------2---2---2---2-2-2-2-----2-2---------------|
E|--------------------------------------0---0---0---0-0-0-0-----0-0---------------|
     D   D   D(D)U D U D   D U D U      D   D   D(D)U D U D   D U D U


[Verse]

Bm                                 
 There are days that I think I'm crazy
D
 Other days nothing seems to faze me
A
 There's nothing more and nothing less 
E
 Just all the fears that I must confess well
Bm
 I'm afraid I believe in nothing
D
 No hopes or dreams you could've left me dead
A
 Naive and not to mention
E
 I'm losing count of all my blessings


[Pre-chorus]

G
 With all that I've done, it's too late
           F#
I can't take back all that I have become

[Chorus]
                           Bm
So all that I'm trying to say
                           D
I'm looking for a better way
                   A
Some days it just gets so hard
                         F#
And I don't wanna slip away
                       Bm
So what am I fighting for?
                     D
Everything back and more
                   A
And I'm not gonna let this go
                        F#
I'm ready to settle the score
                         Bm    D   A   F#
Get ready 'cause this is wa -  r


[Verse]
Bm
 Another day in the right direction
D
 I'm okay but I'm left to question
A
 How did I get so far behind the rest?
E
 Why am I so inclined to forget?
Bm
 All the days that you made me crazy
D
 Nowadays you don't even faze me
A
 It's all the same and I don't stress none
E
 Sick and tired of all this tension

[Pre-Chorus]
G
 With all that I've done, it's too late 
           F#
I can't take back all that I have become



[Chorus]
                           Bm
So all that I'm trying to say
                           D
I'm looking for a better way
                   A
Some days it just gets so hard
                         F#
And I don't wanna slip away
                       Bm
So what am I fighting for?
                     D
Everything back and more
                   A
And I'm not gonna let this go
                        F#
I'm ready to settle the score
                         Bm    D   A   F#
Get ready 'cause this is wa -  r
                         Bm    D   A   F#
Get ready 'cause this is wa -  r


                           Bm
So all that I'm trying to say
                           D
I'm looking for a better way
                   A
Some days it just gets so hard
                         F#
And I don't wanna slip away
                       Bm
So what am I fighting for?
                     D
Everything back and more
                   A
And I'm not gonna let this go
                        F#
I'm ready to settle the score
                         Bm    D   A   F#
Get ready 'cause this is wa -  r
                         (Bm)
Get ready 'cause this is war
            
Submit corrections

↑ Back to top | Tablatures and chords for acoustic guitar and electric guitar, ukulele, drums are parodies/interpretations of the original songs. You may use it for private study, scholarship, research or language learning purposes only