» » »

Sugarfree - Wag Ka Nang Umiyak Tabs

Artists:  A B C D E F G H I J K L M N O P Q R S T U V W X Y Z # 

Wag Ka Nang Umiyak Tabs

(ver. 1) Click to play this song!
Sugarfree
 Rating:
4/5 (4 votes)

 Wag Ka Nang Umiyak lessons Tabs too difficult? Try these video lessons and learn fast
 
                Album:Tala-arawan

 I would like to greet my Classmates in Our Lady of Fatima University,friends,Kuya Marky 
specially my bhiebhie(Chamell).
The real tuning of this song is Eb or Half-Step tuning but I made this tab in standard position.

Gtr.Legends:
/ - slide
p - pull-off
~ - let it ring

Gtr.Tuning:Standard(Normal)

Intro prt.1
e|--------------------------------------------------|
B|----2222-1111-----2222-1111-----2222-1111----1~---|
G|----2222-2222-----2222-2222-----2222-2222----2~---|
D|--------------------------------------------------|
A|-1~-----------------------------------------------|
E|---------------1~------------2~--------------2~---|

Intro prt.2
e|-11111-111111-22222-22222---11111-111111-222222-2~---|
B|-22222-111111-22222-22222---22222-111111-222222-2~---|
G|-33333-111111-33333-22222---33333-111111-333333-2~---|
D|-33333-333333-44444-44444---33333-333333-444444-4~---|
A|-11111-333333-44444-44444---11111-333333-444444-4~---|
E|-------111111-22222-22222---------111111-222222-2~---|

Verse 1:Wag ka nang umiyak...
e|-44444-222222---44444-22222-2~---|
B|-44444-222222---44444-22222-2~---|
G|-66666-333333---66666-33333-2~---|
D|-66666-444444---66666-44444-4~---|
A|-44444-444444---44444-44444-4~---|
E|-------222222---------22222-2~---|

Gtr.1:Ako ang iyong bangka...
e|-44444-222222---44444-2~--2~----|
B|-44444-222222---44444-2~--2~----|
G|-66666-333333---66666-3~--2~----|
D|-66666-444444---66666-4~--4~----|
A|-44444-444444---44444-4~--4~----|
E|-------222222---------2~--2~----|

Gtr.2:
e|--------------------------|
B|-222--1111---2222--1111---|
G|-222--2222---2222--2222---|
D|--------------------------|
A|--------------------------|
E|--------------------------|

Pre-Chorus:Sabay tayong aahon...
e|-------------------|
B|-6666-4444---------|
G|-6666-5555-88888---|
D|-8888-6666-88888---|
A|-8888-6666-66666---|
E|-6666-4444---------|

Chorus:Kung wala ka nang...        Kapit ka sa akin...
e|-------------------------------------------------------------2~---|
B|-------------------------------------------------------------2~---|
G|-666666---------666666------------------66666-8888/10101010--2~---|
D|-666666-44444---666666-444444----888888-66666-8888/10101010--4~---|
A|-444444-44444---444444-444444----888888-44444-6666/-8-8-8-8--4~---|
E|--------22222----------222222----666666----------------------2~---|

Pre-Verse 2:
Gtr.1:Play Verse

Gtr.2:
e|------------------------------------------|
B|-4p2-4-----4p2-4------4p2-4----------6~---|
G|-------0~---------2~--------0~---0~-------|
D|------------------------------------------|
A|------------------------------------------|
E|------------------------------------------|

Verse 2:Wag ka nang umiyak...
Play Verse 1

Repeat Pre-Chorus:

Repeat Chorus:

Bridge prt.1:Hindi kita pababayaan...
Gtr.1
e|-44444-222222---44444--2~----|
B|-44444-222222---44444--2~----|
G|-66666-333333---66666--2~----|
D|-66666-444444---66666--4~----|
A|-44444-444444---44444--4~----|
E|-------222222----------2~----|

Gtr.2:
e|--------------------------|
B|-222--1111---2222--1111---|
G|-222--2222---2222--2222---|
D|--------------------------|
A|--------------------------|
E|--------------------------|

Bridge prt.2:                             Kapit ka,kumapit ka...
e|-----------------------------------------------------------------------|
B|-----------------------------------------------------------------------|
G|-33333-66666-6-9--111111111111111111----333333-666666-11111111111111---|
D|-33333-66666-6-9--111111111111111111----333333-666666-11111111111111---|
A|-11111-44444-4-7---9-9-9-9-9-9-9-9-9----111111-444444--9-9-9-9-9-9-9---|
E|-----------------------------------------------------------------------|

Chorus after bridge:Kung wala ka nang....                      bibitawan...
e|-------------------------------------------------------------------------|
B|-------------------------------------------------------------------------|
G|-666666---------666666------------------66666-8888/10101010--------------|
D|-666666-44444---666666-444444----888888-66666-8888/10101010--444444444---|
A|-444444-44444---444444-444444----888888-44444-6666/-8-8-8-8--444444444---|
E|--------22222----------222222----666666----------------------222222222---|

Outro Chorus:Hindi kita pababayaan...
e|----------------------------|
B|----------------------------|
G|-66666--------66666---------| 3x
D|-66666-44444--66666-44444---|
A|-44444-44444--44444-44444---|
E|-------22222--------22222---|

Kumapit ka...                Ahhhhh
e|-------------22222-22222---------------22222-2~--2~--2~--2~-------|
B|-------------22222-22222---------------22222-2~--2~--2~--2~-------|
G|-33333-66666-33333-22222---33333-66666-33333-2~--2~--2~--2~--6~---|
D|-33333-66666-44444-44444---33333-66666-44444-4~--4~--4~--4~--6~---|
A|-11111-44444-44444-44444---11111-44444-44444-4~--4~--4~--4~--4~---|
E|-------------22222-22222---------------22222-2~--2~--2~--2~-------|

End...


Wag Ka Nang Umiyak Lyrics:

Verse 1
Wag ka nang umiyak, sa mundong pabago-bago
pag-ibig ko ay totoo
ako ang iyong bangka, kung magalit man
ang alon, ng panahon, sabay tayong aahon

Chorus:
Kung wala ka nang maintindihan
Kung wala ka nang makapitan
Kapit ka sa akin, kapit ka sa akin
Di kita bibitawan

Verse 2...
Wag kang umiyak, mahaba man ang araw
uuwi ka sa yakap ko
wag mo nang damdamin kung wala ako sayong tabi
iiwan kong puso ko sa yo
at kung pakiramdam mo’y wala ka nang kakampi
isipin mo ako dahil puso’t isip ko’y
nasa yong tabi

Repeat chorus:

Bridge:
Di kita pababayaan

Kapit ka, kumapit ka

(para sa buhay ng buhay ko)
            
Submit corrections


        Wag Ka Nang Umiyak lessons Hard to play? Try these video lessons and learn fast Wag Ka Nang Umiyak lessons
        
↑ Back to top | Tablatures and chords for acoustic guitar and electric guitar, ukulele, drums are parodies/interpretations of the original songs. You may use it for private study, scholarship, research or language learning purposes only