» » »

Sugar Cult - Say Im Sorry Tabs

Artists:  A B C D E F G H I J K L M N O P Q R S T U V W X Y Z # 

Say Im Sorry Tabs

(ver. 1) Click to play this song!
Sugar Cult
 Rating:
4/5 (4 votes)

 Say Im Sorry lessons Tabs too difficult? Try these video lessons and learn fast
 
                Sugarcult
Wrapped up in plastic
Tuned ½ step down

I didn’t bother with the intro it sounds pretty easy.

verse
E--------------------------------------------------------------
B--------------------------------------------------------------
G-66-66-55-55-44-44-44-4343------------------------------------
D-66-66-55-55-44-44-44-4343------------------------------------
A-44-44-33-33-22-22-22-2121------------------------------------
E--------------------------------------------------------------
If you wanna get down……

Chorus 1
E--------------------------------------------------------------
B--------------------------------------------------------------
G-666------------666-----------44444444------------------------
D-666-666-333-44-666-666-333-4-44444444------------------------
A-444-666-333-44-444-666-333-4-22222222------------------------
E-----444-111-22-----444-111-2---------------------------------

Chorus 2
E--------------------------------------------------------------
B--------------------------------------------------------------
G-888------------888-----------66666666------------------------
D-888-888-555-66-888-888-555-6-66666666------------------------
A-666-888-555-66-666-888-555-6-44444444------------------------
E-----666-333-44-----666-333-4---------------------------------

Bridge
E--------------------------------------------------------------
B--------------------------------------------------------------
G-8888--------------------8888---------------------------------
D-8888-6666-10101010-8888-8888-6666-10101010-8888-9999---------
A-6666-6666-10101010-8888-6666-6666-10101010-8888-9999---------
E------4444-8-8-8-8--6666------4444-8-8-8-8—-6666-7777---------
Im on the outside……
            
Submit corrections


        Say Im Sorry lessons Hard to play? Try these video lessons and learn fast Say Im Sorry lessons
        
↑ Back to top | Tablatures and chords for acoustic guitar and electric guitar, ukulele, drums are parodies/interpretations of the original songs. You may use it for private study, scholarship, research or language learning purposes only