Home » S » Sugar Cult »

Sugar Cult - Lost In You Tabs

Artists:  A B C D E F G H I J K L M N O P Q R S T U V W X Y Z # 

Lost In You Tabs

(ver. 1) Click to play this song!
Sugar Cult
 Rating:
4/5 (4 votes)
                sugarcult - lost in you



--3------2---------------------------
--3------3-------2---------------------
--0------2-------2---------------------
--0--------------2--------------------
--2----------------------------------
--3----------------------------------
  G      D       A

You figure the strumming
 Solo thing


------------------------------------
-----------------------------------
--4--5--4---2---0--2--4--2--2--0--
-------------------------------------
-----------------------------------
------------------------------------


mute these chords

-------------------------------------------
-----------------------------------------
-------7---------------------------------
---5---7---7------------------------------
---5---5---7-------------------------------------
---3-------5-----------------------------



there's a lot more missing, but this should get you started just listen for timing.
            
Submit corrections

↑ Back to top | Tablatures and chords for acoustic guitar and electric guitar, ukulele, drums are parodies/interpretations of the original songs. You may use it for private study, scholarship, research or language learning purposes only