» » »

Sugar Cult - I Changed My Name Tabs

Artists:  A B C D E F G H I J K L M N O P Q R S T U V W X Y Z # 

I Changed My Name Tabs

(ver. 1) Click to play this song!
Sugar Cult
 Rating:
4/5 (4 votes)

 I Changed My Name lessons Tabs too difficult? Try these video lessons and learn fast
 
                This is played in standard tuning

[intro + verse]

E|-------------------------------
B|-------------------------------
G|-----7-----7-------7-----7----- 
D|---7-----7---7---7-----7---7---     repeat until chorus
A|-5-------------5---------------
E|-------6-------------6---------


[chorus intro]

D|-22222222---
A|-22222222---
E|-00000000---


[chorus]


E|-------------------------|-----
B|-------------------------|-----
G|-------------------------|-----
D|-7---5---7---9---7---5---|-7~--     (play each x 8)
A|-7---5---7---9---7---5---|-7~--
E|-5---3---5---7---5---3---|-5~--


[verse]

[chorus]

[bridge]


E|---------------------            |------------------
B|---------------------            |------------------
G|---------------------            |------9---7-------
D|-9---7---9---7---9---            |--9---9---7---7---
A|-9---7---9---7---9--- (each x 8) |--9---7---5---7---
E|-7---5---7---5---7---            |--7-----------5---


[chorus intro + chorus]



Thats all folks.. Enjoy!!!
            
Submit corrections


        I Changed My Name lessons Hard to play? Try these video lessons and learn fast I Changed My Name lessons
        
↑ Back to top | Tablatures and chords for acoustic guitar and electric guitar, ukulele, drums are parodies/interpretations of the original songs. You may use it for private study, scholarship, research or language learning purposes only