» » »

Sugar Cult - Do It Alone Tabs

Artists:  A B C D E F G H I J K L M N O P Q R S T U V W X Y Z # 

Do It Alone Tabs

(ver. 1) Click to play this song!
Sugar Cult
 Rating:
4/5 (4 votes)

 Do It Alone lessons Tabs too difficult? Try these video lessons and learn fast
 
                Tuning: Standard  EADGBe

Note:  There are "13"'s and "11"'s at the end of the solo, and they are played at the 
rate as the rest of the tremolo


Verse

e |--------------------------------------------------|
B |--------------------------------------------------|
G |--6--6--6--6--6--6--6--6--5--5--5--5--5--5--5--5--|
D |--6--6--6--6--6--6--6--6--6--6--6--6--6--6--6--6--|   x2
A |--4--4--4--4--4--4--4--4--3--3--3--3--3--3--3--3--|
E |--------------------------------------------------|

e |---------------------------------------------------------------------|
B |---------------------------------------------------------------------|
G |--666---6---6-6-6-6---6-6---6-6-6---5---5---5-5-5-5---5-5---5-5-5----|
D |--666---6---6-6-6-6---6-6---6-6-6---6---6---6-6-6-6---6-6---6-6-6----|  x2
A |--444---4---4-4-4-4---4-4---4-4-4---3---3---3-3-3-3---3-3---3-3-3----|
E |---------------------------------------------------------------------|


Chorus

e |-----------------------------------------------------------------|
B |-----------------------------------------------------------------|
G |--6---6---6-6-6-6---6-6---6-6-6----------------------------------|
D |--6---6---6-6-6-6---6-6---6-6-6---6---6---6-6-6-6---6-6---6-6-6--|
A |--4---4---4-4-4-4---4-4---4-4-4---6---6---6-6-6-6---6-6---6-6-6--|
E |----------------------------------4---4---4-4-4-4---4-4---4-4-4--|

e |-----------------------------------------------------------------|
B |-----------------------------------------------------------------|
G |-----------------------------------------------------------------|
D |--4---4---4-4-4-4---4-4---4-4-4---6---6-6-6-6-6-6-6-6-6-6-6-6-6--|
A |--4---4---4-4-4-4---4-4---4-4-4---6---6-6-6-6-6-6-6-6-6-6-6-6-6--|
E |--2---2---2-2-2-2---2-2---2-2-2---4---4-4-4-4-4-4-4-4-4-4-4-4-4--|


Verse

e |--------------------------------------------------|
B |--------------------------------------------------|
G |--6--6--6--6--6--6--6--6--5--5--5--5--5--5--5--5--|
D |--6--6--6--6--6--6--6--6--6--6--6--6--6--6--6--6--|    x2
A |--4--4--4--4--4--4--4--4--3--3--3--3--3--3--3--3--|
E |--------------------------------------------------|

e |---------------------------------------------------------------------|
B |---------------------------------------------------------------------|
G |--666---6---6-6-6-6---6-6---6-6-6---5---5---5-5-5-5---5-5---5-5-5----|
D |--666---6---6-6-6-6---6-6---6-6-6---6---6---6-6-6-6---6-6---6-6-6----|  x2
A |--444---4---4-4-4-4---4-4---4-4-4---3---3---3-3-3-3---3-3---3-3-3----|
E |---------------------------------------------------------------------|


Chorus

e |-----------------------------------------------------------------|
B |-----------------------------------------------------------------|
G |--6---6---6-6-6-6---6-6---6-6-6----------------------------------|
D |--6---6---6-6-6-6---6-6---6-6-6---6---6---6-6-6-6---6-6---6-6-6--|
A |--4---4---4-4-4-4---4-4---4-4-4---6---6---6-6-6-6---6-6---6-6-6--|
E |----------------------------------4---4---4-4-4-4---4-4---4-4-4--|

e |-----------------------------------------------------------------|
B |-----------------------------------------------------------------|
G |-----------------------------------------------------------------|
D |--4---4---4-4-4-4---4-4---4-4-4---6---6---6-6-6-6---6-6---6-6-6--|
A |--4---4---4-4-4-4---4-4---4-4-4---6---6---6-6-6-6---6-6---6-6-6--|
E |--2---2---2-2-2-2---2-2---2-2-2---4---4---4-4-4-4---4-4---4-4-4--|

e |-----------------------------------------------------------------|
B |-----------------------------------------------------------------|
G |-note-6---6-6-6-6---6-6---6-6-6----------------------------------|
D |-the--6---6-6-6-6---6-6---6-6-6---6---6---6-6-6-6---6-6---6-6-6--|
A |-gap--4---4-4-4-4---4-4---4-4-4---6---6---6-6-6-6---6-6---6-6-6--|
E |----------------------------------4---4---4-4-4-4---4-4---4-4-4--|

e |-----------------------------------------------------------------|
B |-----------------------------------------------------------------|
G |-----------------------------------------------------------------|
D |--4---4---4-4-4-4---4-4---4-4-4---6---6-6-6-6-6-6-6-6-6-6-6-6-6--|
A |--4---4---4-4-4-4---4-4---4-4-4---6---6-6-6-6-6-6-6-6-6-6-6-6-6--|
E |--2---2---2-2-2-2---2-2---2-2-2---4---4-4-4-4-4-4-4-4-4-4-4-4-4--|


Solo

Solo Guitar
e |-------------------------------------------------------------------|
B |--2-2-2-2-4-4-4-4-6-6-6-6-4-4-4-4-7-7-7-7-6-6-6-6-4-4-4-4-2-2-2-2--|
G |-------------------------------------------------------------------|
D |-------------------------------------------------------------------|
A |-------------------------------------------------------------------|
E |-------------------------------------------------------------------|

Rhythm Guitar
e |-------------------------------------------------------------------|
B |-------------------------------------------------------------------|
G |--6-6-6-6-6-6-6-6-6-6-6-6-6----------------------------------------|
D |--6-6-6-6-6-6-6-6-6-6-6-6-6-6-6-6-4-4-4-4-4-4-4-4-4-4-4-4-4-4-4-4--|
A |--4-4-4-4-4-4-4-4-4-4-4-4-4-6-6-6-4-4-4-4-4-4-4-4-4-4-4-4-4-4-4-4--|
E |----------------------------4-4-4-2-2-2-2-2-2-2-2-2-2-2-2-2-2-2-2--|

Solo Guitar
e |-------------------------------------------------------------------|
B |--2-2-2-2-4-4-4-4-6-6-6-6-2-2-2-2-1-1-1-1-7-7-7-7-6-6-6-6-4-4-4-4--|
G |-------------------------------------------------------------------|
D |-------------------------------------------------------------------|
A |-------------------------------------------------------------------|
E |-------------------------------------------------------------------|

Rhythm Guitar
e |-------------------------------------------------------------------|
B |-------------------------------------------------------------------|
G |--6-6-6-6-6-6-6-6-6-6-6-6-6----------------------------------------|
D |--6-6-6-6-6-6-6-6-6-6-6-6-6-8-8-8-6-6-6-6-6-6-6-6-6-6-6-6-6-6-6-6--|
A |--4-4-4-4-4-4-4-4-4-4-4-4-4-8-8-8-6-6-6-6-6-6-6-6-6-6-6-6-6-6-6-6--|
E |----------------------------6-6-6-4-4-4-4-4-4-4-4-4-4-4-4-4-4-4-4--|

Solo Guitar
e |-------------------------------------------------------------------|
B |--6-6-6-6-4-4-4-4-6-6-6-6-9-9-9-9-7-7-7-7-6-6-6-6-4-4-4-4-2-2-2-2--|
G |-------------------------------------------------------------------|
D |-------------------------------------------------------------------|
A |-------------------------------------------------------------------|
E |-------------------------------------------------------------------|

Rhythm Guitar
e |-------------------------------------------------------------------|
B |-------------------------------------------------------------------|
G |----------------------------------6-6-6-6-6-6-6-6-6-6-6-6-6-6-6-6--|
D |--8-8-8-8-8-8-8-8-8-8-8-8-8-6-6-6-6-6-6-6-6-6-6-6-6-6-6-6-6-6-6-6--|
A |--8-8-8-8-8-8-8-8-8-8-8-8-8-6-6-6-4-4-4-4-4-4-4-4-4-4-4-4-4-4-4-4--|
E |--6-6-6-6-6-6-6-6-6-6-6-6-6-4-4-4----------------------------------|

Solo Guitar
e |-------------------------------------------------------------------|
B |--9-9-9-9-7-7-7-7-6-6-6-6-4-4-4-4-4-4-4-4-6-6-6-6-7-7-7-7-13131313-|
G |-------------------------------------------------------------------|
D |-------------------------------------------------------------------|
A |-------------------------------------------------------------------|
E |-------------------------------------------------------------------|

Rhythm Guitar
e |-------------------------------------------------------------------|
B |-------------------------------------------------------------------|
G |----------------------------------11111111111111111111111111111111-|
D |--4-4-4-4-4-4-4-4-4-4-4-4-4-4-4-4-11111111111111111111111111111111-|
A |--4-4-4-4-4-4-4-4-4-4-4-4-4-4-4-4-9-9-9-9-9-9-9-9-9-9-9-9-9-9-9-9--|
E |--2-2-2-2-2-2-2-2-2-2-2-2-2-2-2-2----------------------------------|


Bridge

e |------------------------|
B |------------------------|
G |--6---------------------|
D |--6-----let ring--------|
A |--4---------------------|
E |------------------------|

e |-----------------------------------|
B |-----------------------------------|
G |-----------------------------------|
D |-----------------------------------|   x3
A |--4-4-4-4-4-4-4-4-4-4-4-4-4-4-4-4--|
E |--2-2-2-2-2-2-2-2-2-2-2-2-2-2-2-2--|
     . . . . . . . . . . . . . . . .

e |-----------------------------------|
B |-----------------------------------|
G |-----------------------------------|
D |-----------------------------------|
A |--4-4-4-4-4-4-4-4-4-4-4-4-4--------|
E |--2-2-2-2-2-2-2-2-2-2-2-2-2--------|
     . . . . . . . . . . . . .


Chorus

e |-----------------------------------------------------------------|
B |-----------------------------------------------------------------|
G |--6---6---6-6-6-6---6-6---6-6-6----------------------------------|
D |--6---6---6-6-6-6---6-6---6-6-6---6---6---6-6-6-6---6-6---6-6-6--|
A |--4---4---4-4-4-4---4-4---4-4-4---6---6---6-6-6-6---6-6---6-6-6--|
E |----------------------------------4---4---4-4-4-4---4-4---4-4-4--|

e |-----------------------------------------------------------------|
B |-----------------------------------------------------------------|
G |-----------------------------------------------------------------|
D |--4---4---4-4-4-4---4-4---4-4-4---6---6---6-6-6-6---6-6---6-6-6--|
A |--4---4---4-4-4-4---4-4---4-4-4---6---6---6-6-6-6---6-6---6-6-6--|
E |--2---2---2-2-2-2---2-2---2-2-2---4---4---4-4-4-4---4-4---4-4-4--|

e |-----------------------------------------------------------------|
B |-----------------------------------------------------------------|
G |-note-6---6-6-6-6---6-6---6-6-6----------------------------------|
D |-the--6---6-6-6-6---6-6---6-6-6---6---6---6-6-6-6---6-6---6-6-6--|
A |-gap--4---4-4-4-4---4-4---4-4-4---6---6---6-6-6-6---6-6---6-6-6--|
E |----------------------------------4---4---4-4-4-4---4-4---4-4-4--|

e |-----------------------------------------------------------------|
B |-----------------------------------------------------------------|
G |-----------------------------------------------------------------|
D |--4---4---4-4-4-4---4-4---4-4-4---6---6-6-6-6-6-6-6-6-6-6-6-6-6--|
A |--4---4---4-4-4-4---4-4---4-4-4---6---6-6-6-6-6-6-6-6-6-6-6-6-6--|
E |--2---2---2-2-2-2---2-2---2-2-2---4---4-4-4-4-4-4-4-4-4-4-4-4-4--|

Outro

e |-----------------------------------------------------------------|
B |-----------------------------------------------------------------|
G |--6---6---6-6-6-6---6-6---6-6-6----------------------------------|
D |--6---6---6-6-6-6---6-6---6-6-6---6---6---6-6-6-6---6-6---6-6-6--|
A |--4---4---4-4-4-4---4-4---4-4-4---6---6---6-6-6-6---6-6---6-6-6--|
E |----------------------------------4---4---4-4-4-4---4-4---4-4-4--|

e |-----------------------------------------------------------------|
B |-----------------------------------------------------------------|
G |-----------------------------------------------------------------|
D |--8---8---8-8-8-8---8-8---8-8-8---4---4-4-4-4-4-4-4-4-4-4-4-4-4--|
A |--8---8---8-8-8-8---8-8---8-8-8---4---4-4-4-4-4-4-4-4-4-4-4-4-4--|
E |--6---6---6-6-6-6---6-6---6-6-6---2---2-2-2-2-2-2-2-2-2-2-2-2-2--|

e |-----------------------------------------------------------------|
B |-----------------------------------------------------------------|
G |--6---6---6-6-6-6---6-6---6-6-6----------------------------------|
D |--6---6---6-6-6-6---6-6---6-6-6---6---6---6-6-6-6---6-6---6-6-6--|
A |--4---4---4-4-4-4---4-4---4-4-4---6---6---6-6-6-6---6-6---6-6-6--|
E |----------------------------------4---4---4-4-4-4---4-4---4-4-4--|

e |-----------------------------------------------------------------|
B |-----------------------------------------------------------------|
G |-----------------------------------------------------------------|
D |--8---8---8-8-8-8---8-8---8-8-8---4---4-4-4-4-4-4-4-4-4-4-4-4-4--|
A |--8---8---8-8-8-8---8-8---8-8-8---4---4-4-4-4-4-4-4-4-4-4-4-4-4--|
E |--6---6---6-6-6-6---6-6---6-6-6---2---2-2-2-2-2-2-2-2-2-2-2-2-2--|

e |---------------------------------|
B |---------------------------------|
G |---------------------------------|
D |--4-4-4-4-4-4-4-4-4-4-4-4-4-4-4--|
A |--4-4-4-4-4-4-4-4-4-4-4-4-4-4-4--|
E |--2-2-2-2-2-2-2-2-2-2-2-2-2-2-2--|

e |------------------------|
B |------------------------|
G |--6---------------------|
D |--6-----let ring--------|
A |--4---------------------|
E |------------------------|
            
Submit corrections


        Do It Alone lessons Hard to play? Try these video lessons and learn fast Do It Alone lessons
        
↑ Back to top | Tablatures and chords for acoustic guitar and electric guitar, ukulele, drums are parodies/interpretations of the original songs. You may use it for private study, scholarship, research or language learning purposes only