» » »

Sugar Cult - Bruises Tabs

Artists:  A B C D E F G H I J K L M N O P Q R S T U V W X Y Z # 

Bruises Tabs

(ver. 1) Click to play this song!
Sugar Cult
 Rating:
4/5 (4 votes)

 Bruises lessons Tabs too difficult? Try these video lessons and learn fast
 
                Standard Tuning

Intro/Chorus
e|----------------------------------
B|----------------------------------
G|-7-7-7-7--------------------------
D|-7-7-7-7-9-9-9-9-5-5-5-5-7-7-7-7-- x2
A|-5-5-5-5-9-9-9-9-5-5-5-5-7-7-7-7--
E|---------7-7-7-7-3-3-3-3-5-5-5-5--

Chorus ends with:
e|--------------------------
B|--------------------------
G|-7h-7h-7h-7h-7h-7h-7h-7h--
D|-7h-7h-7h-7h-7h-7h-7h-7h--
A|-5h-5h-5h-5h-5h-5h-5h-5h--
E|--------------------------

Verse
e|--------------------------------------------------
B|--------------------------------------------------
G|-7h-7h-7h-7h--------------------------------------
D|-7h-7h-7h-7h-4h-4h-4h-4h-9h-9h-9h-9h-8h-8h-8h-8h-- x2
A|-5h-5h-5h-5h-4h-4h-4h-4h-9h-9h-9h-9h-8h-8h-8h-8h--
E|-------------2h-2h-2h-2h-7h-7h-7h-7h-6h-6h-6h-6h--
In Verse 2, this starts later and is played only 1x

Bridge
Haven't gotten this far yet, but there is a bridge..

Outro
e|-----------------
B|-----------------
G|-7h-7h-7h-7h-7h--
D|-7h-7h-7h-7h-7h--
A|-5h-5h-5h-5h-5h--
E|-----------------

Order:
Intro/Chorus
Verse
Chorus (Ends a little differently)
Verse
Chorus
Bridge
Chorus x2
Outro
            
Submit corrections


        Bruises lessons Hard to play? Try these video lessons and learn fast Bruises lessons
        
↑ Back to top | Tablatures and chords for acoustic guitar and electric guitar, ukulele, drums are parodies/interpretations of the original songs. You may use it for private study, scholarship, research or language learning purposes only