» » »

Sugar Cult - Boucing Off The Walls Again Tabs

Artists:  A B C D E F G H I J K L M N O P Q R S T U V W X Y Z # 

Boucing Off The Walls Again Tabs

(ver. 1) Click to play this song!
Sugar Cult
 Rating:
4/5 (4 votes)

 Boucing Off The Walls Again lessons Tabs too difficult? Try these video lessons and learn fast
 
                
Intro/verse
Do this 4x clean then with distortion 4x 
E----0h3------0h3-----------------------------------------------------------------
B----0h3------0h3-------------------------------------------------------------
G----0h4------0h4-----0h7----0h7-----0h5----0h5---0h5----0h5-------------------------------------
D----0h5------0h5-----0h7----0h7-----0h5----0h5---0h5----0h5-------------------------------------
A----0h5------0h5-----0h5----0h5-----0h3----0h3---0h3----0h3------------------------------------
E----0h3------0h3------------------------------------------------------------

Chorus
Do 3x
E---------------------------------------------------------------------------
B-----------------------------------------------------------------------
G----22~~~------55~~~-----7/5----7/5-----------------------------------------------------
D----22~~~------55~~~-----7/5----7/5-----------------------------------------------------
A----00~~~------33~~~-----5/3----5/3-----------------------------------------------------
E-----------------------------------------------------------------------

Chorus end
On the last time do this to end
E---------------------------------------------------------------------------
B-----------------------------------------------------------------------
G----22~~~------0h5-----0h5----0h5---0h5--------------------------------------------------
D----22~~~------0h5-----0h5----0h5---0h5-------------------------------------------------
A----00~~~------0h3-----0h3----0h3---0h3--------------------------------------------------
E-----------------------------------------------------------------------

And I don’t know the solo sorry

Song set up 
Verse clean 4x
Verse distortion 4x
Chorus 3x
Chorus end1x
Verse distortion 4x
Chorus3x
Chorus end1x
Solo ( with verse in background4x 4th  time don’t hammer on just play the power chords and let ring)
Solo (with chorus in background3x)
Some fill I don’t know
Verse 4x (4th  time don’t hammer on just play the power chords and let ring)
Verse (this time with distortion don’t hammer on just play the power chords and let ring4x)
Verse 1x (regular)
            
Submit corrections


        Boucing Off The Walls Again lessons Hard to play? Try these video lessons and learn fast Boucing Off The Walls Again lessons
        
↑ Back to top | Tablatures and chords for acoustic guitar and electric guitar, ukulele, drums are parodies/interpretations of the original songs. You may use it for private study, scholarship, research or language learning purposes only