» » »

Sugar Cult - Bonus Track Tabs

Artists:  A B C D E F G H I J K L M N O P Q R S T U V W X Y Z # 

Bonus Track Tabs

(ver. 1) Click to play this song!
Sugar Cult
 Rating:
4/5 (4 votes)

 Bonus Track lessons Tabs too difficult? Try these video lessons and learn fast
 
                "(1)
(2)
Sugarcult – Bonus Track 12 – “Underwear”

Fingerpick:
  
e|--------------------------------------
B|--------------------------------------
G|-----4-------2-------------------2----
D|-----4----------2------5-----------2--Repeat over and over. Only variation
A|--2----------0------------5------0----comes into play when there is an occasional
E|-----------------------3--------------strummed A chord (ie – end of intro)

That is the whole song except the bridge
The bridge is mostly pronounced on the bass
But you can play along with this riff…

(Sounds best if all finger-plucked at once)
e|--------------------------------------
B|--------------------------------------
G|--------------------------------------
D|-9/5---5---5/4-------9/5---5---5/4----
A|-9/5---5---5/4-------9/5---5---5/4----
E|-7/3---3---3/2-------7/3---3---3/2----

e|---------------------------------------
B|---------------------------------------
G|---------------------------------------
D|-9/5---5---5/4-------9/5---5---5/7-----
A|-9/5---5---5/4-------9/5---5---5/7-----
E|-7/3---3---3/2-------7/3---3---3/5-----
 Then back to main riff. Timing isn't right on.
 Listen to CD to get right timing.
/ = slide

Well, that’s the song ya’ll. Any questions or comments

-Jeff Reynolds
"            
Submit corrections


        Bonus Track lessons Hard to play? Try these video lessons and learn fast Bonus Track lessons
        
↑ Back to top | Tablatures and chords for acoustic guitar and electric guitar, ukulele, drums are parodies/interpretations of the original songs. You may use it for private study, scholarship, research or language learning purposes only