Home » S » Styx »

Styx - Too Much Time On My Hands Tabs

Artists:  A B C D E F G H I J K L M N O P Q R S T U V W X Y Z # 

Too Much Time On My Hands Tabs

(ver. 1) Click to play this song!
Styx
 Rating:
4.2/5 (5 votes)
                Too Much Time On My Hands by:
Styx

Andre B

Chords:
    A 5 7 7 4 5 5
   Bm 7 9 9 7 7 7
    C X 3 5 5 5 3

Intro:
A A

Verse:
     Fill
|-------------|
|-------------|
|-----5-7---5-|
|-5-7-----7---|
|-------------|
|-------------|

C

Chorus:
A Bm

Solo:
|-7-14b-14b-14b-14b-14b-14b-14b-14b-------------------------------------------------------|
|-7---------------------------------------------------------------------------------------|
|-7------------------------------------------------------9b-9-7---7-----------------------|
|-9---------------------------------12-14-12h14p12-14-12--------9---9-7h9-9-7-9-7h9p7-----|
|-9-----------------------------------------------------------------------------------9-7-|
|-7---------------------------------------------------------------------------------------|

|-----------------------------------------------------------------------------------------------|
|--------------------------------------------------------------------12----------------------12-|
|-----5-7b-7b-5-7b-----5-7-7b-7b-------7~-8~-9~-10~-11~-12~-12h14p12----14b-12-14b-12-14b-12----|
|-7-9--------------9-9-----------9-7-9----------------------------------------------------------|
|-----------------------------------------------------------------------------------------------|
|-----------------------------------------------------------------------------------------------|

							     
|------------------------------------------------------------|--------------------------------|
|------------------------------------------------------------|--------------------------------|
|-14-12--------------------------------9b-9b-7-9-7h9p7-7-5-4-|-14-12-11-9-7-9-7h9p7-9-7-4p2h4-|
|-------14-12h14p12\9----------------------------------------|--------------------------------|
|---------------------2x3x4x5x6x7x8x9x-----------------------|--------------------------------|
|------------------------------------------------------------|--------------------------------|

|-7---------------------------------------------5-3-------14b-14b-13b-14b-14b-14b-14b-14b-14b-|
|---10-7-----10-7-------------------------------5-3-------------------------------------------|
|--------9-7------9-7-9-7-7b-7b-9-9-7-7-9-9-7-7-6-4-9b-9b-------------------------------------|
|-----------------------------------------------7-5-------------------------------------------|
|-----------------------------------------------7-5-------------------------------------------|
|-----------------------------------------------5-3-------------------------------------------|

|-14b-14b-|
|---------|
|---------|
|---------|
|---------|
|---------|
            
Submit corrections

↑ Back to top | Tablatures and chords for acoustic guitar and electric guitar, ukulele, drums are parodies/interpretations of the original songs. You may use it for private study, scholarship, research or language learning purposes only