» » »

Styx - Mademoiselle Chords

Artists:  A B C D E F G H I J K L M N O P Q R S T U V W X Y Z # 

Mademoiselle Chords

(ver. 1) Click to play this song!
Styx
 Rating:
4.3/5 (22 votes)

 Mademoiselle lessons Tabs too difficult? Try these video lessons and learn fast
 
                [Intro]
e|--xx--------xx-6-----xx--------xx-6-|
B|--xx-8------xx-6-----xx-8------xx-6-|
G|--xx-8------xx-6-----xx-8------xx-6-|
D|--xx-8------xx-6-----xx-8------xx-6-|
A|--xx--------xx-------xx--------xx---|
E|--xx--------xx-------xx--------xx---|

e|-11-13----11--------------------------------------------------------------|
B|-------13----11-13-8-11----8-------------------------8-9---11-13---14-14b-|
G|------------------------10---8-10--------8----8-10------------------------|
D|----------------------------------8-----x---11----------------------------|
A|--------------------------------------x-----------------------------------|
E|--------------------------------------------------------------------------|

e|-11-13----11-------------------------------------------------------------------------|
B|-------13----11-13-8-11----8-------------8------------8-9---11-13---14-16b-16-16b-16-|
G|------------------------10---8-10-------------8-10-----------------------------------|
D|----------------------------------8-----x---11---------------------------------------|
A|--------------------------------------x----------------------------------------------|
E|-------------------------------------------------------------------------------------|

[Chorus]

e|------------------------------------------------------------------|
B|------------------------------------------------------------------|
G|-----8------------------------------------8-----------------------|
D|--8--8---------------------------------8--8-----------------------|x2
A|--8--6---------------------------------8--6-----------------------|
E|--6------------------------------------6--------------------------|
          Tell me where are you going         Sweet Mademoiselle
                 to london or paris           to the grand hotel
[Verse]

e|----------------------------------6---6---6---6---6---6---6---6-----|
B|--8---8---8---8---8---8---8---8---6---6---6---6---6---6---6---6-----|
G|--8---8---8---8---8---8---8---8---6---6---6---6---6---6---6---6-----|
D|--8---8---8---8---8---8---8---8---6---6---6---6---6---6---6---6-----|
A|--------------------------------------------------------------------|
E|--------------------------------------------------------------------|
  Where do you go....   end of the daaa-aa-ay
  Where do you go....     spend time awa-aa-ay

e|--4---4---4---4---3---3---3---3---8---8---8---8---8---8---8---8---6---6---6---6---6---6---6---6--|
B|--4---4---4---4---3---3---3---3---8---8---8---8---8---8---8---8---6---6---6---6---6---6---6---6--|
G|--5---5---5---5---4---4---4---4---8---8---8---8---8---8---8---8---8---8---8---8---7---7---7---7--|
D|--6---6---6---6---5---5---5---5---10--10--10--10--10--19--10--10---------------------------------|
A|-------------------------------------------------------------------------------------------------|
E|-------------------------------------------------------------------------------------------------|
  Islands in...                     ...Youre searching...

e|----------------------------------6---6---6---6---6---6---6---6-----|
B|--8---8---8---8---8---8---8---8---6---6---6---6---6---6---6---6-----|
G|--8---8---8---8---8---8---8---8---6---6---6---6---6---6---6---6-----|
D|--8---8---8---8---8---8---8---8---6---6---6---6---6---6---6---6-----|
A|--------------------------------------------------------------------|
E|--------------------------------------------------------------------|
I tell you hello...     ...do you saa-aa-ay
I stop you go...            ...to sta-aa-ay

e|--4---4---4---4---3---3---3---3---8---8---8---8---8---8---8---8---6---6---6---6---6---6---6---6--|
B|--4---4---4---4---3---3---3---3---8---8---8---8---8---8---8---8---6---6---6---6---6---6---6---6--|
G|--5---5---5---5---4---4---4---4---8---8---8---8---8---8---8---8---8---8---8---8---7---7---7---7--|
D|--6---6---6---6---5---5---5---5---10--10--10--10--10--19--10--10---------------------------------|
A|-------------------------------------------------------------------------------------------------|
E|-------------------------------------------------------------------------------------------------|
 It all began...                      ...I never realized

[Chorus]

e|------------------------------------------------------------------|
B|------------------------------------------------------------------|
G|-----8------------------------------------8-----------------------|
D|--8--8---------------------------------8--8-----------------------|x2
A|--8--6---------------------------------8--6-----------------------|
E|--6------------------------------------6--------------------------|
          Tell me where are you going         Sweet Mademoiselle
                  to london or paris           to the grand hotel

 [Interlude]
      Cm                           Fm
e|----------------------------------------------------------------------------------------|
B|----------------------------------------------------------------------------------------|
G|---10--10---8---10--10--10---8---13---13-15-17---13-15-17-15-13-17-15-13-17--15--13-----|
D|---12--12--10---12--12--12--10------------------------------------------------------17--|  x2
A|-x------------x-------------------------------------------------------------------------|
E|----------------------------------------------------------------------------------------|

e|------------------------13----13-15-15b-15-15b-15-|
B|---------13-15----15-17---------------------------|
G|-16---16------------------------------------------|
D|--------------------------------------------------|
A|--------------------------------------------------|
E|--------------------------------------------------|

e|--------------------------16b-16-15------|
B|-----------------------------------16-16-|
G|-----------------------------------------|
D|-----------------------------------------|
A|-----------------------------------------|
E|-----------------------------------------|

e|--------------------------16b-16-15---18-|
B|-----------------------------------16----|
G|-----------------------------------------|
D|-----------------------------------------|
A|-----------------------------------------|
E|-----------------------------------------|

e|--------------------------18b-16-15------|
B|-----------------------------------16-16-|
G|-----------------------------------------|
D|-----------------------------------------|
A|-----------------------------------------|
E|-----------------------------------------|

e|------------------6---6---6---6-|
B|--8---8---8---8---6---6---6---6-|
G|--8---8---8---8---6---6---6---6-|
D|--8---8---8---8---6---6---6---6-|
A|--------------------------------|
E|--------------------------------|
      Sweet Mademoiselle!
      Sweet Mademoiselle!


[Outro]

e|---------------------| e|-----------------------------------------------------------------|
B|---------------------| B|-----------------------------------------------------------------|
G|---------------------| G|----8------------------------------------8-----------------------|
D|---------------------| D|-8--8---------------------------------8--8-----------------------|  x2
A|---------------------| A|-8--6---------------------------------8--6-----------------------|
E|-6-6-6-6-6-6-6-6-6-6-| E|-6------------------------------------6--------------------------|
                                Tell me where are you going         Sweet Mademoiselle
                                         to london or paris           to the grand hotel

            
Submit corrections


        Mademoiselle lessons Hard to play? Try these video lessons and learn fast Mademoiselle lessons
        
↑ Back to top | Tablatures and chords for acoustic guitar and electric guitar, ukulele, drums are parodies/interpretations of the original songs. You may use it for private study, scholarship, research or language learning purposes only