Home » S » Strokes »

Strokes - Ill Always Be There Tabs

Artists:  A B C D E F G H I J K L M N O P Q R S T U V W X Y Z # 

Ill Always Be There Tabs

(ver. 1) Click to play this song!
Strokes
Tuning: Standard EADGBe
For 2 Guitars

~-let ring
/-slide to
t-tremelo Picking
^-Bend

Great song but it was before IS THIS IT 
and you can only find it at 
this it section-> under the title of 05 Unknown song 1
Live at Brownies. the song has no title so
I gave it one. Downloading the song recommended!

Intro
Guitar 1
e------------------------------|
B------------------------------|
G----9----9--9-----10---12-10--|
D-7-7--7-7--7---8-8---8---8--8-|
A------------------------------|
E------------------------------|X4
After That twice the 2nd guitar comes in also:
Guitar 2
e-5-----6-----|
B-5(4X)-6(4X)-|
G-5-----7-----|
D-7-----8-----|
A-------------|
E-------------|X2
The Picking pattern for these chords is a more or
less syncopated upbeat rythm. this just means 
that you do the upstrokes that Albert does on 
Last Nite or Nick does on Modern Age

The Verse is the Same as intro but half way guitar two plays 
maybe a string more to add to those chords.

Pre-Chorus
Guitar 1 & 2
e-7------8-----2-----3-----|
B-9(4X)-10(4X)-4(4X)-5(4X)-|
G-8------9-----3-----4-----|
D-9-----10-----4-----5-----|
A--------------------------|
E--------------------------|X4
Both guitars play syncopated, and on this part 
it is more easier to hear.

Chorus
Guitar 1
e--------------|
B--------------|
G--------------|
D-10-----2-----|
A-10(8X)-2(8X)-|
E--8-----0-----|X4

Guitar 2
e--8-----------|
B--8-----9-----|
G--9(4X)-9(4X)-|
D-10-----9-----|
A-10-----7-----|
E--8-----------|X4

Bridge
Guitar 1 & 2
e--------------|-------------|
B--------------|-------------|
G--------------|-------------|
D-12-----10-9~-|-10-----9-7~-|
A-12(X4)-10-9~-|-10(X4)-9-7~-|
E-10------8-7~-|--8-----7-5~-|X2

about the second and fourth time of these 
guitar 2 plays this some where in the middle
e----------|
B----------|
G-9-9-10-9-|
D-X-X--X-X-|
A-7-7--8-7-|
E----------|

Verse
same except for Guitar 1 who plays this 
about 2 measures into the song:
e--------|
B--------|
G--------|
D-7~--8~-|
A-X~--X~-|
E-5~--6~-|

Pre-chorus is same

Chorus
Same Except for Guitar 2 Plays this somewhere.
You'll have to really listen for it.
e-----------------|
B-----------------|
G-12-----12-11--9-|
D--X(8X)--X--X--X-|
A-10-----10--9--7-|
E-----------------|

Bridge/Outro
Same but now Guitar 2 plays this in it. it keeps the 
same stroke pattern.
3rd time through:
e-------------|------------|
B-------------|------------|
G-9-----7-10~-|-7-----5-9~-|
D-X(X4)-X--X~-|-X(X4)-X-X~-|
A-7-----5--8~-|-5-----3-7~-|
E-------------|------------|

4th time:
Guitar 1
e-------------------------------|
B-------------------------------|
G--9------10------12-----14-----|
D-tX(X?)--tX(X?)--tX(X?)-tX(X?)-|
A--7-------8------10-----12-----|
E-------------------------------|

Guitar 2
e--------------|----------|
B--------------|----------|
G--------------|----------|
D-12-----10-9~-|-10-----9-|
A-12(X4)-10-9~-|-10(X4)-9-|
E-10------8-7~-|--8-----7-|

Ending Note
Guitar 1
e--------|
B--------|
G-17~~~^-|
D--X~~~--|
A-15~~~^-|
E--------|

Guitar 2
e-5~~~--|
B-5~~~--|
G-5~~~--|
D-7~~~--|
A-7~~~--|
E-5~~~--|

this song is delicious! try it! download! now!
go go go!
            
Submit corrections

↑ Back to top | Tablatures and chords for acoustic guitar and electric guitar, ukulele, drums are parodies/interpretations of the original songs. You may use it for private study, scholarship, research or language learning purposes only