Home » S » Strokes »

Strokes - Hard To Explain Tabs

Artists:  A B C D E F G H I J K L M N O P Q R S T U V W X Y Z # 

Hard To Explain Tabs

(ver. 1) Click to play this song!
Strokes
[Verse]
Guitar I
e|-x-x-x-x-x-x-x-x--x-x-x-x-x-x-x-x--x-x-x-x-x-x-x-x-x-x-x-x-x-x-x-x-|
B|-8-8-8-8-8-8-8-8--7-7-7-7-7-7-7-7--8-8-8-8-8-8-8-8-8-8-8-8-8-8-8-8-|
G|-x-x-x-x-x-x-x-x--x-x-x-x-x-x-x-x--x-x-x-x-x-x-x-x-x-x-x-x-x-x-x-x-|
D|-------------------------------------------------------------------|
A|-------------------------------------------------------------------|
E|-------------------------------------------------------------------|

e|----------------------------------------------|
B|--------------3---3/5--7---5----3---3/5--7--5-|
G|-5-7-7/9--------5----5---5--5-----5----5------|
D|--------7-/5-----------------7----------------|
A|----------------------------------------------|
E|----------------------------------------------|

e|----------------------|-------------------------------------------------|
B|-1--1----1--1--1----1-|-------------------------------------------------|
G|-0--2-/4-2--0--2-/4-2-|-12-12-12-12-12-12-12-12-12-12-12-12-12-12-12-12-|
D|----------------------|-12-12-12-12-12-12-12-12-12-12-12-12-12-12-12-12-|
A|----------------------|-10-10-10-10-10-10-10-10-10-10-10-10-10-10-10-10-|
E|----------------------|-------------------------------------------------|
                          . . . . . . . . . . . . . . . . . . . . . . . .

Guitar II
e|-3-3-3-3-3-3-3-3--7-7-7-7-7-7-7-7--0-0-0-0-0-0-0-0-0-0-0-0-0-0-0-0-|
B|-3-3-3-3-3-3-3-3--8-8-8-8-8-8-8-8--1-1-1-1-1-1-1-1-1-1-1-1-1-1-1-1-|
G|-4-4-4-4-4-4-4-4--7-7-7-7-7-7-7-7--2-2-2-2-2-2-2-2-2-2-2-2-2-2-2-2-|
D|-5-5-5-5-5-5-5-5--9-9-9-9-9-9-9-9--2-2-2-2-2-2-2-2-2-2-2-2-2-2-2-2-|
A|-5-5-5-5-5-5-5-5-------------------0-0-0-0-0-0-0-0-0-0-0-0-0-0-0-0-|
E|-------------------------------------------------------------------|

e|-0-0-0-0-0-0-0-0-0-0-0-0-0-0-0-0----------------------------------|
B|-1-1-1-1-1-1-1-1-1-1-1-1-1-1-1-1--7-7-7-7-7-7-7-7-7-7-7-7-7-7-7-7-|
G|-0-0-0-0-0-0-0-0-0-0-0-0-0-0-0-0--7-7-7-7-7-7-7-7-7-7-7-7-7-7-7-7-|
D|-2-2-2-2-2-2-2-2-2-2-2-2-2-2-2-2--7-7-7-7-7-7-7-7-7-7-7-7-7-7-7-7-|
A|-3-3-3-3-3-3-3-3-3-3-3-3-3-3-3-3--5-5-5-5-5-5-5-5-5-5-5-5-5-5-5-5-|
E|------------------------------------------------------------------|

e|------------------------------------------------------------------|
B|-5-5-5-5-5-5-5-5-5-5-5-5-5-5-5-5--5-5-5-5-5-5-5-5-5-5-5-5-5-5-5-5-|
G|-5-5-5-5-5-5-5-5-5-5-5-5-5-5-5-5--5-5-5-5-5-5-5-5-5-5-5-5-5-5-5-5-|
D|-5-5-5-5-5-5-5-5-5-5-5-5-5-5-5-5--5-5-5-5-5-5-5-5-5-5-5-5-5-5-5-5-|
A|-3-3-3-3-3-3-3-3-3-3-3-3-3-3-3-3--0-0-0-0-0-0-0-0-0-0-0-0-0-0-0-0-|
E|------------------------------------------------------------------|

e|---------------------------------|-3-3-3-3-3-3-3-3-3-3-3-3-3-3-3-3-3-3-3-3-3-3-3-3-3-3-3-3-3-3-3-3-|
B|-5-5-5-5-5-5-5-5-5-5-5-5-5-5-5-5-|-3-3-3-3-3-3-3-3-3-3-3-3-3-3-3-3-3-3-3-3-3-3-3-3-3-3-3-3-3-3-3-3-|
G|-5-5-5-5-5-5-5-5-5-5-5-5-5-5-5-5-|-0-0-0-0-0-0-0-0-0-0-0-0-0-0-0-0-0-0-0-0-0-0-0-0-0-0-0-0-0-0-0-0-|
D|-5-5-5-5-5-5-5-5-5-5-5-5-5-5-5-5-|-----------------------------------------------------------------|
A|-0-0-0-0-0-0-0-0-0-0-0-0-0-0-0-0-|-----------------------------------------------------------------|
E|---------------------------------|-----------------------------------------------------------------|
                                     . . . . . . . . . . . . . . . . . . . . . . . . . . . . . . . .

[Pre-Chorus]
Guitar I
e|---------------------------------------------------|
B|-5/12-12-12-12-12-12-12-12-12-12-12-12-12-12-12-12-|
G|-5/12-12-12-12-12-12-12-12-12-12-12-12-12-12-12-12-|
D|-5/12-12-12-12-12-12-12-12-12-12-12-12-12-12-12-12-|
A|---------------------------------------------------|
E|---------------------------------------------------|

Guitar II
e|------------------------------------------------------------------|
B|------------------------------------------------------------------|
G|------------------------------------------------------------------|
D|-5-5-5-5-5-5-5-5-5-5-5-5-5-5-5-5--5-5-5-5-5-5-5-5-5-5-5-5-5-5-5-5-|
A|-5-5-5-5-5-5-5-5-5-5-5-5-5-5-5-5--7-7-7-7-7-7-7-7-7-7-7-7-7-7-7-7-|
E|------------------------------------------------------------------|

e|------------------------------------------------------------------|
B|------------------------------------------------------------------|
G|------------------------------------------------------------------|
D|-5-5-5-5-5-5-5-5-5-5-5-5-5-5-5-5--5-5-5-5-5-5-5-5-5-5-5-5-5-5-5-5-|
A|-2-2-2-2-2-2-2-2-2-2-2-2-2-2-2-2--0-0-0-0-0-0-0-0-0-0-0-0-0-0-0-0-|
E|------------------------------------------------------------------|

e|------------------------------------------------------------------|
B|------------------------------------------------------------------|
G|------------------------------------------------------------------|
D|-5-5-5-5-5-5-5-5-5-5-5-5-5-5-5-5--5-5-5-5-5-5-5-5-5-5-5-5-5-5-5-5-|
A|-5-5-5-5-5-5-5-5-5-5-5-5-5-5-5-5--7-7-7-7-7-7-7-7-7-7-7-7-7-7-7-7-|
E|------------------------------------------------------------------|

e|------------------------------------------------------------------|
B|------------------------------------------------------------------|
G|------------------------------------------------------------------|
D|-5-5-5-5-5-5-5-5-5-5-5-5-5-5-5-5--5-5-5-5-5-5-5-5-5-5-5-5-5-5-5-5-|
A|-2-2-2-2-2-2-2-2-2-2-2-2-2-2-2-2--0-0-0-0-0-0-0-0-0-0-0-0-0-0-0-0-|
E|------------------------------------------------------------------|

[Chorus]
Guitar I
e|------|
B|--12--|
G|--12--|
D|--12--|
A|------|
E|------|

Guitar II
e|--------------------------------------------------------|
B|--------------------------------------------------------|
G|--------------------------------------------------------|
D|-9-12-9-10-9--9-12-9-10-9-----9--------------9----------| x3
A|---------------------------10---10-12-10--10---10-12-10-|
E|--------------------------------------------------------|

e|--------------------------------------|
B|--------------------------------------|
G|--------------------------------------|
D|-9-12-9-10-9--9-12-9-10-9-----9-------|
A|---------------------------10---10-12-|
E|--------------------------------------|

[Verse]
Guitar I
e|-x-x-x-x-x-x-x-x--x-x-x-x-x-x-x-x--x-x-x-x-x-x-x-x-x-x-x-x-x-x-x-x-|
B|-8-8-8-8-8-8-8-8--7-7-7-7-7-7-7-7--8-8-8-8-8-8-8-8-8-8-8-8-8-8-8-8-|
G|-x-x-x-x-x-x-x-x--x-x-x-x-x-x-x-x--x-x-x-x-x-x-x-x-x-x-x-x-x-x-x-x-|
D|-------------------------------------------------------------------|
A|-------------------------------------------------------------------|
E|-------------------------------------------------------------------|

e|----------------------------------------------|
B|--------------3---3/5--7---5----3---3/5--7--5-|
G|-5-7-7/9--------5----5---5--5-----5----5------|
D|--------7-/5-----------------7----------------|
A|----------------------------------------------|
E|----------------------------------------------|

e|----------------------|-------------------------------------------------|
B|-1--1----1--1--1----1-|-------------------------------------------------|
G|-0--2-/4-2--0--2-/4-2-|-12-12-12-12-12-12-12-12-12-12-12-12-12-12-12-12-|
D|----------------------|-12-12-12-12-12-12-12-12-12-12-12-12-12-12-12-12-|
A|----------------------|-10-10-10-10-10-10-10-10-10-10-10-10-10-10-10-10-|
E|----------------------|-------------------------------------------------|
                          . . . . . . . . . . . . . . . . . . . . . . . .

Guitar II
e|-3-3-3-3-3-3-3-3--7-7-7-7-7-7-7-7--0-0-0-0-0-0-0-0-0-0-0-0-0-0-0-0-|
B|-3-3-3-3-3-3-3-3--8-8-8-8-8-8-8-8--1-1-1-1-1-1-1-1-1-1-1-1-1-1-1-1-|
G|-4-4-4-4-4-4-4-4--7-7-7-7-7-7-7-7--2-2-2-2-2-2-2-2-2-2-2-2-2-2-2-2-|
D|-5-5-5-5-5-5-5-5--9-9-9-9-9-9-9-9--2-2-2-2-2-2-2-2-2-2-2-2-2-2-2-2-|
A|-5-5-5-5-5-5-5-5-------------------0-0-0-0-0-0-0-0-0-0-0-0-0-0-0-0-|
E|-------------------------------------------------------------------|

e|-0-0-0-0-0-0-0-0-0-0-0-0-0-0-0-0----------------------------------|
B|-1-1-1-1-1-1-1-1-1-1-1-1-1-1-1-1--7-7-7-7-7-7-7-7-7-7-7-7-7-7-7-7-|
G|-0-0-0-0-0-0-0-0-0-0-0-0-0-0-0-0--7-7-7-7-7-7-7-7-7-7-7-7-7-7-7-7-|
D|-2-2-2-2-2-2-2-2-2-2-2-2-2-2-2-2--7-7-7-7-7-7-7-7-7-7-7-7-7-7-7-7-|
A|-3-3-3-3-3-3-3-3-3-3-3-3-3-3-3-3--5-5-5-5-5-5-5-5-5-5-5-5-5-5-5-5-|
E|------------------------------------------------------------------|

e|------------------------------------------------------------------|
B|-5-5-5-5-5-5-5-5-5-5-5-5-5-5-5-5--5-5-5-5-5-5-5-5-5-5-5-5-5-5-5-5-|
G|-5-5-5-5-5-5-5-5-5-5-5-5-5-5-5-5--5-5-5-5-5-5-5-5-5-5-5-5-5-5-5-5-|
D|-5-5-5-5-5-5-5-5-5-5-5-5-5-5-5-5--5-5-5-5-5-5-5-5-5-5-5-5-5-5-5-5-|
A|-3-3-3-3-3-3-3-3-3-3-3-3-3-3-3-3--0-0-0-0-0-0-0-0-0-0-0-0-0-0-0-0-|
E|------------------------------------------------------------------|

e|---------------------------------|-3-3-3-3-3-3-3-3-3-3-3-3-3-3-3-3-3-3-3-3-3-3-3-3-3-3-3-3-3-3-3-3-|
B|-5-5-5-5-5-5-5-5-5-5-5-5-5-5-5-5-|-3-3-3-3-3-3-3-3-3-3-3-3-3-3-3-3-3-3-3-3-3-3-3-3-3-3-3-3-3-3-3-3-|
G|-5-5-5-5-5-5-5-5-5-5-5-5-5-5-5-5-|-0-0-0-0-0-0-0-0-0-0-0-0-0-0-0-0-0-0-0-0-0-0-0-0-0-0-0-0-0-0-0-0-|
D|-5-5-5-5-5-5-5-5-5-5-5-5-5-5-5-5-|-----------------------------------------------------------------|
A|-0-0-0-0-0-0-0-0-0-0-0-0-0-0-0-0-|-----------------------------------------------------------------|
E|---------------------------------|-----------------------------------------------------------------|
                                     . . . . . . . . . . . . . . . . . . . . . . . . . . . . . . . .

[Pre-Chorus]
Guitar I
e|---------------------------------------------------|
B|-5/12-12-12-12-12-12-12-12-12-12-12-12-12-12-12-12-|
G|-5/12-12-12-12-12-12-12-12-12-12-12-12-12-12-12-12-|
D|-5/12-12-12-12-12-12-12-12-12-12-12-12-12-12-12-12-|
A|---------------------------------------------------|
E|---------------------------------------------------|

Guitar II
e|------------------------------------------------------------------|
B|------------------------------------------------------------------|
G|------------------------------------------------------------------|
D|-5-5-5-5-5-5-5-5-5-5-5-5-5-5-5-5--5-5-5-5-5-5-5-5-5-5-5-5-5-5-5-5-|
A|-5-5-5-5-5-5-5-5-5-5-5-5-5-5-5-5--7-7-7-7-7-7-7-7-7-7-7-7-7-7-7-7-|
E|------------------------------------------------------------------|

e|------------------------------------------------------------------|
B|------------------------------------------------------------------|
G|------------------------------------------------------------------|
D|-5-5-5-5-5-5-5-5-5-5-5-5-5-5-5-5--5-5-5-5-5-5-5-5-5-5-5-5-5-5-5-5-|
A|-2-2-2-2-2-2-2-2-2-2-2-2-2-2-2-2--0-0-0-0-0-0-0-0-0-0-0-0-0-0-0-0-|
E|------------------------------------------------------------------|

e|------------------------------------------------------------------|
B|------------------------------------------------------------------|
G|------------------------------------------------------------------|
D|-5-5-5-5-5-5-5-5-5-5-5-5-5-5-5-5--5-5-5-5-5-5-5-5-5-5-5-5-5-5-5-5-|
A|-5-5-5-5-5-5-5-5-5-5-5-5-5-5-5-5--7-7-7-7-7-7-7-7-7-7-7-7-7-7-7-7-|
E|------------------------------------------------------------------|

e|------------------------------------------------------------------|
B|------------------------------------------------------------------|
G|------------------------------------------------------------------|
D|-5-5-5-5-5-5-5-5-5-5-5-5-5-5-5-5--5-5-5-5-5-5-5-5-5-5-5-5-5-5-5-5-|
A|-2-2-2-2-2-2-2-2-2-2-2-2-2-2-2-2--0-0-0-0-0-0-0-0-0-0-0-0-0-0-0-0-|
E|------------------------------------------------------------------|

[Chorus]
Guitar I
e|------|
B|--12--|
G|--12--|
D|--12--|
A|------|
E|------|

Guitar II
e|--------------------------------------------------------|
B|--------------------------------------------------------|
G|--------------------------------------------------------|
D|-9-12-9-10-9--9-12-9-10-9-----9--------------9----------| x3
A|---------------------------10---10-12-10--10---10-12-10-|
E|--------------------------------------------------------|

e|-----------------------------------------------------|
B|-----------------------------------------------------|
G|-----------------------------------------------------|
D|-9-12-9-10-9--9-12-9-10-9-----9--------------9-------|
A|---------------------------10---10-12-10--10---10-12-|
E|-----------------------------------------------------|

            
Submit corrections

↑ Back to top | Tablatures and chords for acoustic guitar and electric guitar, ukulele, drums are parodies/interpretations of the original songs. You may use it for private study, scholarship, research or language learning purposes only