Home » S » Strokes »

Strokes - At The Door Tabs

Artists:  A B C D E F G H I J K L M N O P Q R S T U V W X Y Z # 

At The Door Tabs

(ver. 1) Click to play this song!
Strokes
[Intro]
  G1
e|----------------|----------------|----------------|----------------|
B|----------------|----------------|----------------|----------------|
G|3-------3-------|3-------5---2---|3---------3-----|--3-----5---2---|
D|----------------|----------------|----------------|----------------|
A|----------------|----------------|----------------|----------------|
E|3-----3-3-----3-|3-------5---1---|3-------3-------|3-------5---1---|
 
e|----------------|----------------|----------------|----------------|
B|----------------|----------------|----------------|----------------|
G|7---------7-----|--7-----7---5---|3---2-----2-----|--2-----3---3---|
D|----------------|----------------|----------------|----------------|
A|----------------|----------------|--------3-------|3---------------|
E|6-------6-------|6-------6---5---|3---1-----------|--------3---3---|
 
[Verse]
  G1
e|----------------|----------------|----------------|----------------|
B|----------------|----------------|----------------|----------------|
G|3-------3-------|3-------5---2---|3---------3-----|--3-----5---2---|
D|----------------|----------------|----------------|----------------|
A|----------------|----------------|----------------|----------------|
E|3-----3-3-----3-|3-------5---1---|3-------3-------|3-------5---1---|
 
                                                                       x2
e|----------------|----------------|----------------|----------------|
B|----------------|----------------|----------------|----------------|
G|7---------7-----|--7-----7---5---|3---2-----2-----|--2-----3---3---|
D|----------------|----------------|----------------|----------------|
A|----------------|----------------|--------3-------|3---------------|
E|6-------6-------|6-------6---5---|3---1-----------|--------3---3---|
 
[Chorus]
  G1
e|----------------|----------------|----------------|----------------|
B|----------------|----------------|----------------|----------------|
G|3-------3-------|3-------5---2---|3---------3-----|--3-----5---2---|
D|----------------|----------------|----------------|----------------|
A|----------------|----------------|----------------|----------------|
E|3-----3-3-----3-|3-------5---1---|3-------3-------|3-------5---1---|
 |G2
e|6---------------|------------1---|6---------------|----------------|
B|8---------------|------------1---|8---------------|----------------|
G|7---------------|------------2---|7---------------|----------------|
D|----------------|----------------|----------------|----------------|
A|----------------|----------------|----------------|----------------|
E|----------------|----------------|----------------|----------------|
 
 
e|----------------|----------------|
B|----------------|----------------|
G|7---------7-----|--7-----7---5---|
D|----------------|----------------|
A|----------------|----------------|
E|6-------6-------|6-------6---5---|
 |
e|1---------------|----------------|
B|3---------------|----------------|
G|3---------------|----------------|
D|----------------|----------------|
A|----------------|----------------|
E|----------------|----------------|
 
  G1
e|----------------|----------------|----------------|10--------------|
B|8---------------|10------11------|11------10------|--------10------|
G|----------------|----------------|----------------|----------------|
D|----------------|----------------|----------------|----------------|
A|----------------|----------------|----------------|----------------|
E|----------------|----------------|----------------|----------------|
 |G2
e|6---------------|----------------|6---------------|----------------|
B|8---------------|----------------|6---------------|----------------|
G|8---------------|----------------|5---------------|----------------|
D|----------------|----------------|----------------|----------------|
A|----------------|----------------|----------------|----------------|
E|----------------|----------------|----------------|----------------|
 |G3
e|----------------|----------------|----------------|----------------|
B|----------------|----------------|----------------|----------------|
G|3-3-3-3-3-3-3-3-|2-2-2-2-5-5-5-5-|2-2-2-2-2-2-2-2-|2-2-2-2-2-2-2-2-|
D|5-5-5-5-5-5-5-5-|5-5-5-5-5-5-5-5-|3-3-3-3-3-3-3-3-|3-3-3-3-3-3-3-3-|
A|----------------|----------------|----------------|----------------|
E|----------------|----------------|----------------|----------------|
 
 
e|6---------------|----------------|10--------------|----------------|
B|6---------------|----------------|8---------------|----------------|
G|7---------------|----------------|8---------------|----------------|
D|----------------|----------------|----------------|----------------|
A|----------------|----------------|----------------|----------------|
E|----------------|----------------|----------------|----------------|
 |
e|----------------|----------------|----------------|10--------------|
B|8---------------|10------11------|11------8-------|----------------|
G|--------10------|----------------|----------------|--------8-------|
D|----------------|----------------|----------------|----------------|
A|----------------|----------------|----------------|----------------|
E|----------------|----------------|----------------|----------------|
 |
e|----------------|----------------|----------------|----------------|
B|----------------|----------------|----------------|----------------|
G|3-3-3-3-3-3-3-3-|3-3-3-3-2-2-2-2-|3-3-3-3-3-3-3-3-|3-3-3-3-2-2-2-2-|
D|5-5-5-5-5-5-5-5-|5-5-5-5-5-5-5-5-|5-5-5-5-5-5-5-5-|5-5-5-5-5-5-5-5-|
A|----------------|----------------|----------------|----------------|
E|----------------|----------------|----------------|----------------|
 
 
e|6---------------|----------------|6---------------|----------------|
B|8---------------|----------------|6---------------|----------------|
G|8---------------|----------------|5---------------|----------------|
D|----------------|----------------|----------------|----------------|
A|----------------|----------------|----------------|----------------|
E|----------------|----------------|----------------|----------------|
 |
e|----------------|----------------|----------------|10--------------|
B|8---------------|10------11------|11------10------|--------10------|
G|----------------|----------------|----------------|----------------|
D|----------------|----------------|----------------|----------------|
A|----------------|----------------|----------------|----------------|
E|----------------|----------------|----------------|----------------|
 |
e|----------------|----------------|----------------|----------------|
B|----------------|----------------|----------------|----------------|
G|3-3-3-3-3-3-3-3-|3-3-3-3-5-5-5-5-|2-2-2-2-2-2-2-2-|2-2-2-2-5-5-5-5-|
D|5-5-5-5-5-5-5-5-|5-5-5-5-5-5-5-5-|3-3-3-3-3-3-3-3-|3-3-3-3-3-3-3-3-|
A|----------------|----------------|----------------|----------------|
E|----------------|----------------|----------------|----------------|
 
 
e|6---------------|----------------|10--------------|----------------|
B|6---------------|----------------|8---------------|----------------|
G|7---------------|----------------|8---------------|----------------|
D|----------------|----------------|----------------|----------------|
A|----------------|----------------|----------------|----------------|
E|----------------|----------------|----------------|----------------|
 |
e|----------------|----------------|----------------|10--------------|
B|8---------------|10------11------|11------8-------|----------------|
G|--------10------|----------------|----------------|--------8-------|
D|----------------|----------------|----------------|----------------|
A|----------------|----------------|----------------|----------------|
E|----------------|----------------|----------------|----------------|
 |                                                   PM
e|----------------|----------------|----------------|----------------|
B|----------------|----------------|----------------|----------------|
G|3-3-3-3-3-3-3-3-|3-3-3-3-2-2-2-2-|3-3-3-3-3-3-3-3-|3-3-3-3-2-2-2-2-|
D|3-3-3-3-3-3-3-3-|3-3-3-3-3-3-3-3-|5-5-5-5-5-5-5-5-|5-5-5-5-5-5-5-5-|
A|----------------|----------------|----------------|----------------|
E|----------------|----------------|----------------|----------------|
 
[Verse]
  G1
e|----------------|----------------|----------------|----------------|
B|----------------|----------------|----------------|----------------|
G|3-------3-------|3-------5---2---|3---------3-----|--3-----5---2---|
D|----------------|----------------|----------------|----------------|
A|----------------|----------------|----------------|----------------|
E|3-----3-3-----3-|3-------5---1---|3-------3-------|3-------5---1---|
 
                                                                       x2
e|----------------|----------------|----------------|----------------|
B|----------------|----------------|----------------|----------------|
G|7---------7-----|--7-----7---5---|3---2-----2-----|--2-----3---3---|
D|----------------|----------------|----------------|----------------|
A|----------------|----------------|--------3-------|3---------------|
E|6-------6-------|6-------6---5---|3---1-----------|--------3---3---|
 
[Chorus]
  G1
e|----------------|----------------|----------------|----------------|
B|----------------|----------------|----------------|----------------|
G|3-------3-------|3-------5---2---|3---------3-----|--3-----5---2---|
D|----------------|----------------|----------------|----------------|
A|----------------|----------------|----------------|----------------|
E|3-----3-3-----3-|3-------5---1---|3-------3-------|3-------5---1---|
 |G2
e|6---------------|------------1---|6---------------|----------------|
B|8---------------|------------1---|8---------------|----------------|
G|7---------------|------------2---|7---------------|----------------|
D|----------------|----------------|----------------|----------------|
A|----------------|----------------|----------------|----------------|
E|----------------|----------------|----------------|----------------|
 
 
e|----------------|----------------|
B|----------------|----------------|
G|7---------7-----|--7-----7---5---|
D|----------------|----------------|
A|----------------|----------------|
E|6-------6-------|6-------6---5---|
 |
e|1---------------|----------------|
B|3---------------|----------------|
G|3---------------|----------------|
D|----------------|----------------|
A|----------------|----------------|
E|----------------|----------------|
 
  G1
e|----------------|----------------|----------------|10--------------|
B|8---------------|10------11------|11------10------|--------10------|
G|----------------|----------------|----------------|----------------|
D|----------------|----------------|----------------|----------------|
A|----------------|----------------|----------------|----------------|
E|----------------|----------------|----------------|----------------|
 |G2
e|6---------------|----------------|6---------------|----------------|
B|8---------------|----------------|6---------------|----------------|
G|8---------------|----------------|5---------------|----------------|
D|----------------|----------------|----------------|----------------|
A|----------------|----------------|----------------|----------------|
E|----------------|----------------|----------------|----------------|
 |G3
e|----------------|----------------|----------------|----------------|
B|----------------|----------------|----------------|----------------|
G|3-3-3-3-3-3-3-3-|2-2-2-2-5-5-5-5-|2-2-2-2-2-2-2-2-|2-2-2-2-2-2-2-2-|
D|5-5-5-5-5-5-5-5-|5-5-5-5-5-5-5-5-|3-3-3-3-3-3-3-3-|3-3-3-3-3-3-3-3-|
A|----------------|----------------|----------------|----------------|
E|----------------|----------------|----------------|----------------|
 
 
e|6---------------|----------------|10--------------|----------------|
B|6---------------|----------------|8---------------|----------------|
G|7---------------|----------------|8---------------|----------------|
D|----------------|----------------|----------------|----------------|
A|----------------|----------------|----------------|----------------|
E|----------------|----------------|----------------|----------------|
 |
e|----------------|----------------|----------------|10--------------|
B|8---------------|10------11------|11------8-------|----------------|
G|--------10------|----------------|----------------|--------8-------|
D|----------------|----------------|----------------|----------------|
A|----------------|----------------|----------------|----------------|
E|----------------|----------------|----------------|----------------|
 |
e|----------------|----------------|----------------|----------------|
B|----------------|----------------|----------------|----------------|
G|3-3-3-3-3-3-3-3-|3-3-3-3-2-2-2-2-|3-3-3-3-3-3-3-3-|3-3-3-3-2-2-2-2-|
D|5-5-5-5-5-5-5-5-|5-5-5-5-5-5-5-5-|5-5-5-5-5-5-5-5-|5-5-5-5-5-5-5-5-|
A|----------------|----------------|----------------|----------------|
E|----------------|----------------|----------------|----------------|
 
 
e|6---------------|----------------|6---------------|----------------|
B|8---------------|----------------|6---------------|----------------|
G|8---------------|----------------|5---------------|----------------|
D|----------------|----------------|----------------|----------------|
A|----------------|----------------|----------------|----------------|
E|----------------|----------------|----------------|----------------|
 |
e|----------------|----------------|----------------|10--------------|
B|8---------------|10------11------|11------10------|--------10------|
G|----------------|----------------|----------------|----------------|
D|----------------|----------------|----------------|----------------|
A|----------------|----------------|----------------|----------------|
E|----------------|----------------|----------------|----------------|
 |
e|----------------|----------------|----------------|----------------|
B|----------------|----------------|----------------|----------------|
G|3-3-3-3-3-3-3-3-|3-3-3-3-5-5-5-5-|2-2-2-2-2-2-2-2-|2-2-2-2-5-5-5-5-|
D|5-5-5-5-5-5-5-5-|5-5-5-5-5-5-5-5-|3-3-3-3-3-3-3-3-|3-3-3-3-3-3-3-3-|
A|----------------|----------------|----------------|----------------|
E|----------------|----------------|----------------|----------------|
 
 
e|6---------------|----------------|10--------------|----------------|
B|6---------------|----------------|8---------------|----------------|
G|7---------------|----------------|8---------------|----------------|
D|----------------|----------------|----------------|----------------|
A|----------------|----------------|----------------|----------------|
E|----------------|----------------|----------------|----------------|
 |
e|----------------|----------------|----------------|10--------------|
B|8---------------|10------11------|11------8-------|----------------|
G|--------10------|----------------|----------------|--------8-------|
D|----------------|----------------|----------------|----------------|
A|----------------|----------------|----------------|----------------|
E|----------------|----------------|----------------|----------------|
 |                                                   PM
e|----------------|----------------|----------------|----------------|
B|----------------|----------------|----------------|----------------|
G|3-3-3-3-3-3-3-3-|3-3-3-3-2-2-2-2-|3-3-3-3-3-3-3-3-|3-3-3-3-2-2-2-2-|
D|3-3-3-3-3-3-3-3-|3-3-3-3-3-3-3-3-|5-5-5-5-5-5-5-5-|5-5-5-5-5-5-5-5-|
A|----------------|----------------|----------------|----------------|
E|----------------|----------------|----------------|----------------|
 
 
[Bridge]
  G1
e|----------------|----------------|----------------|----------------|
B|----------------|----------------|----------------|----------------|
G|----------------|----------------|----------------|----------------|
D|--5---5---3---3-|--8---8---8---8-|--8---8---8---8-|--8---8---5---5-|
A|----------------|----------------|----------------|----------------|
E|3---3---1---1---|6---6---6---6---|6---6---6---6---|6---6---3---3---|
 |G3
e|----------------|----------------|----------------|----------------|
B|----------------|----------------|----------------|----------------|
G|3-------2-------|7---------------|----------------|--------3-------|
D|5-------3-------|8---------------|----------------|--------5-------|
A|5-------3-------|8---------------|----------------|--------5-------|
E|3-------1-------|6---------------|----------------|--------3-------|
 
 
e|----------------|----------------|----------------|----------------|
B|----------------|----------------|----------------|----------------|
G|--------7---7---|----------------|----------------|----------------|
D|7---7-----------|--3---3---3---3-|--3---3---3---3-|--5---5---7---7-|
A|--------5---5---|----------------|----------------|----------------|
E|5---5-----------|1---1---1---1---|1---1---1---1---|3---3---5---5---|
 |
e|----------------|----------------|----------------|----------------|
B|--------6-------|----------------|----------------|----------------|
G|5-------7-------|2---------------|----------------|3-------5-------|
D|7-------7-------|3---------------|----------------|5-------7-------|
A|7-------5-------|3---------------|----------------|5-------7-------|
E|5---------------|1---------------|----------------|3-------5-------|
 
 
e|----------------|----------------|----------------|----------------|
B|----------------|----------------|----------------|----------------|
G|----------------|----------------|----------------|----------7---7-|
D|--8---8---8---8-|--8---8---8---8-|--8---8---5---5-|--7---7---------|
A|----------------|----------------|----------------|--------5---5---|
E|6---6---6---6---|6---6---6---6---|6---6---3---3---|5---5-----------|
 |
e|----------------|----------------|----------------|----------------|
B|----------------|----------------|----------------|--------6-------|
G|7---------------|----------------|--------3-------|5-------7-------|
D|8---------------|----------------|--------5-------|7-------7-------|
A|8---------------|----------------|--------5-------|7-------5-------|
E|6---------------|----------------|--------3-------|5---------------|
 
 
e|----------------|----------------|--------|
B|----------------|----------------|--------|
G|----------------|----------------|--------|
D|--3---3---3---3-|--3---3---3---3-|--3---3-|
A|----------------|----------------|--------|
E|1---1---1---1---|1---1---1---1---|1---1---|
 |
e|----------------|----------------|--------|
B|----------------|----------------|--------|
G|2---------------|----------------|--------|
D|3---------------|----------------|--------|
A|3---------------|----------------|--------|
E|1---------------|----------------|--------|
 
[Break]
  G1
e|10-10-10-10-10----11-8--|------------------------|10-10-10-10-10----11-8--|------------------------|
B|11-11-11-11-11----13-10-|------------------------|11-11-11-11-11----13-10-|------------------------|
G|------------------------|------------------------|------------------------|------------------------|
D|------------------------|------------------------|------------------------|------------------------|
A|------------------------|------------------------|------------------------|------------------------|
E|------------------------|------------------------|------------------------|------------------------|
 
 
e|8--8--8--8--8-----10-6--|------------------------|8--8--8--8--8-----10-6--|------------------------|
B|10-10-10-10-10----11-8--|------------------------|10-10-10-10-10----11-8--|---10-8-----------------|
G|------------------------|------------------------|------------------------|---10-8-----------------|
D|------------------------|------------------------|------------------------|------------------------|
A|------------------------|------------------------|------------------------|------------------------|
E|------------------------|------------------------|------------------------|------------------------|
 
 
e|------------------------|------------------------|------------------------|---------------------3--|
B|4--3-----------3--------|------------------------|------------------------|3--4--3--4--6--4--6-----|
G|------5--3--5-----5--3--|2--3--2--0--2--0--------|---0--2--3--5-----3--5--|------------------------|
D|------------------------|------------------3--1--|3-----------------------|------------------------|
A|------------------------|------------------------|------------------------|------------------------|
E|------------------------|------------------------|------------------------|------------------------|
 
 
e|6-----3-----------------|------------------------|------------------------|------------------------|
B|---3--------6-----4--3--|4--3-----3-----3--------|------3--4-----4-----4--|------3--4--3-----------|
G|---------5-----3--------|------5-----5-----3--2--|3--5--------------3-----|3--5-----------5--3--5--|
D|------------------------|------------------------|------------5-----------|------------------------|
A|------------------------|------------------------|------------------------|------------------------|
E|------------------------|------------------------|------------------------|------------------------|
 
 
e|6--5--6--8--6--5--6-----|5-----3-----1-----0-----|------------------------|------------------------|
B|---------------------8--|---6-----5-----3-----1--|3--4--3-----3-----3--4--|3-----------------------|
G|------------------------|------------------------|---------5--------------|---5--3-----2-----5-----|
D|------------------------|------------------------|---------------5--------|------------------------|
A|------------------------|------------------------|------------------------|------------------------|
E|------------------------|------------------------|------------------------|------------------------|
 
 
e|---------------------1--|------1--3--------3--5--|6--5--6--8-----6--8--10-|---8--10-10----8--10-10-|
B|---------3--4--3--4-----|---4-----------6--------|------------------------|------------------------|
G|5--3--5-----------------|------------------------|------------------------|------------------------|
D|------------------------|------------------------|------------------------|------------------------|
A|------------------------|------------------------|------------------------|------------------------|
E|------------------------|------------------------|------------------------|------------------------|
 
[Outro]
  G1
e|----------------|----------------|----------------|----------------|
B|4---------------|----------------|----------------|----------------|
G|3---------------|2---------------|7---------------|3---------------|
D|5---------------|3---------------|8---------------|5---------------| x3
A|3---------------|3---------------|8---------------|6---------------|
E|----------------|1---------------|6---------------|----------------|
            
Submit corrections

↑ Back to top | Tablatures and chords for acoustic guitar and electric guitar, ukulele, drums are parodies/interpretations of the original songs. You may use it for private study, scholarship, research or language learning purposes only