Home » S » Stray Cats »

Stray Cats - Be-Bop-A-Lula Bass

Artists:  A B C D E F G H I J K L M N O P Q R S T U V W X Y Z # 

Be-Bop-A-Lula Bass

(ver. 1) Click to play this song!
Stray Cats

|-------6-7-6---6---------6-7-6-----------6-7-6------------------------------|
|---6-9-------9---9---6-9-------9-6---6-9-------9-6---6-7-8-9---9-6----------|
|-7-----------------7---------------7---------------7---------7-----7--------|
|----------------------------------------------------------------------------|

                              Verse 0:24
|-------------------------6-|-------6----------------------------------------|
|---6-7-8-9-----------6-9---|---6-9---9---6-9-6---6-7-8-9---6-9-6---6-9-6----|
|-7---------7-5-4-5-7-------|-7---------7-------7---------7-------7----------|
|---------------------------|------------------------------------------------|

|----------------------------------------------------------------------------|
|-7--------7----------------------------------6-7----------------------------|
|---10-9-7---10-9-8-7--------7------------6-9-----10-9-8-7-5-4-3-2-0---2-----|
|---------------------10-9-7---10-9-8-x-7----------------------------2-------|

  0:50
|----------------------------------------------------------------------------|
|----------------------------------------------------------------------------|
|-------~----------------------~-----------------------~---------------------|
|-0--------------------------------------------------------------------------|

 Chorus 1:04
|----------------------------------------------------------------------------|
|--------------2-4p2-----2---------------------1-4-6-7-5-4-2-----------------|
|-7-5-4-2--0-4-------0-4---4-----2-4-5-4-2---2---------------7-5-4-3-2-4-5-6-|
|----------------------------0-4-----------4---------------------------------|

 Solo 1:22
|----------------------------------------------------------------------------|
|---6-7-8-9-----------6-7-8-9-------6-7-5-4-2-7------------------------------|
|-7---------7-5-4-2-7---------7-7-9-------------10-9-8-7-5-4-2-7-------------|
|----------------------------------------------------------------10-9-8------|

|----------------------------------------------------------------------------|
|-----9-8-7--------------------------6-9-11-12-11-9------6-9-11-12-11-9-8-7--|
|---6-------10-9-8-7-5-4-3-2---4-6-7----------------11-7---------------------|
|-7--------------------------7-----------------------------------------------|

|----------------------------------------------------------------------------|
|--------7----------6-7-9---6-7-9--9-9---9-8-7----------------------9--------|
|-10-9-7---10-9-8-7-------7------------6-------10-9-8-7-5-4-3-2---9---7------|
|---------------------------------------------------------------7------------|

 Verse II 2:11
|----------------------------------------------------------------------------|
|----------------------------------------------------------------------------|
|--~------------------~---------------~---------------~--------------~-------|
|----------------------------------------------------------------------------|

 Chorus II 2:24
|-------------------------------------------------1--------------------------|
|---------------4-----------------------------1-4---4-----------6-7-8-9-7-6--|
|-----------4-7---7---4-7-4-----2-4-5-4-2---2---------0-4-5-6-7-------------9|
|-0-0-2-4-5---------5-------0-4-----------4----------------------------------|

 Solo II 2:40
|----------------------------------------------------------------------------|
|---6-7-8-9-9-7-6-------------2-4-6-7--------7------------6-7-9--9-9-7-6-----|
|-7---------------9-7-5-4-5-7---------10-9-7---10-9-8-7-7----------------9---|
|----------------------------------------------------------------------------|

|----------------------------------------------------6-7-8-9-9-7-6-----------|
|-9-9----9-9-8-7--7--------------------------6-7-8-9---------------9---------|
|-----6-------------10-9-8-7-5-4-3-2-4-5-6-7-------------------------7-5-4-2-|
|----------------------------------------------------------------------------|

|-----------------------6-7-6------------------------------------------------|
|-------4-5-4---4---6-9-------9-6-------9-----------6-7-8-9-8-8h9-9-6--------|
|---4-7-------7---7-----------------6-9-------7-4-7--------------------------|
|-5-------------------------------7-------5-5--------------------------------|

 Verse III 3:30
|----------------------------------------------------------------------------|
|---6-7-9-6---6-7-9-6---6-7-9-6-----6-9-6-7--------------------4-7---6-7-8-9-|
|-7---------7---------7---------7-7-----------4-7-----4-7--7-7-----7---------|
|-------------------------------------------5-----5-5------------------------|

|----------------------------------------------------------------------------|
|-------6-7----------------------2-------------------------------------------|
|---6-9-----10-9-8-7-5-4-3-2-x-4---------------------------------------------|
|-7--------------------------------------------------------------------------|
            
Submit corrections

↑ Back to top | Tablatures and chords for acoustic guitar and electric guitar, ukulele, drums are parodies/interpretations of the original songs. You may use it for private study, scholarship, research or language learning purposes only