Home » S » Stranglers »

Stranglers - Hanging Around Bass

Artists:  A B C D E F G H I J K L M N O P Q R S T U V W X Y Z # 

Hanging Around Bass

(ver. 1) Click to play this song!
Stranglers
-------------------------------------------------------------------------------
			     HANGING AROUND - The Stranglers
-------------------------------------------------------------------------------


Tuning: Standard

G|------------------------|
D|----------10-------5----|
A|------------------------|
E|-5-5\---8----8---3----3-|  x2

G|-----------------------------|
D|-----7------7------10-----5--|
A|-----------------------------|
E|-5-5---5--5---5--8---8--3---3|  x10

G|----------------------------|
D|----------------------------|
A|-------------------33333333-|
E|-55555555-33333333----------|

G|-----7------7------10-------5---|
D|--------------------------------|
A|-55----5--5---5--8----8--3----3-|
E|--------------------------------|  x6

G|--------------------------------------|
D|--------------------------------------|
A|-55555555-33333333--------------------|
E|--------------------11111111-33333333-|

G|-----------------------------|
D|-----7------7------10-----5--|
A|-----------------------------|
E|--55---5--5---5--8---8--3---3|  x8

G|----------------------------|
D|----------------------------|
A|-------------------33333333-|
E|-55555555-33333333----------|

G|-----7------7------10-------5---|
D|--------------------------------|
A|-55----5--5---5--8----8--3----3-|
E|--------------------------------|  x6

G|--------------------------------------|
D|--------------------------------------|
A|-55555555-33333333--------------------|
E|--------------------11111111-33333333-|

G|-----------------------------|
D|-----7------7------10-----5--|
A|-----------------------------|
E|--55---5--5---5--8---8--3---3|  x14

G|----------------------------|
D|----------------------------|
A|-------------------33333333-|
E|-55555555-33333333----------|

G|-----7------7------10-------5---|
D|--------------------------------|
A|-55----5--5---5--8----8--3----3-|
E|--------------------------------|  x13

G|----7-------7-------333-------|
D|------------------------------|
A|-55---5--5----5--5------333-5-|
E|------------------------------|
            
Submit corrections

↑ Back to top | Tablatures and chords for acoustic guitar and electric guitar, ukulele, drums are parodies/interpretations of the original songs. You may use it for private study, scholarship, research or language learning purposes only