» » »

Story Of The Year - We Dont Care Anymore Bass

Artists:  A B C D E F G H I J K L M N O P Q R S T U V W X Y Z # 

We Dont Care Anymore Bass

(ver. 1) Click to play this song!
Story Of The Year
 Rating:
4/5 (4 votes)

 We Dont Care Anymore lessons Tabs too difficult? Try these video lessons and learn fast
 
                                            We Don't Care Anymore                               


                                                               Story Of The Year
Adam



                              H.           E   E    
F#||-------|-------|-------|-----------------------|
C#||-------|-------|-------|-----------------------|
G#||-------|-------|-------|-----------------------|
C#||-------|-------|-------|------------------12\--|


  E  E  S S S S E  E  S S S S    E  E  S S S S E  E  S S S S  
------------------------------|------------------------------|
------------------------------|------------------------------|
------------------------------|------------------------------|
--2--4--2-4-4-4-2--4--2-4-4-4-|--2--4--2-4-4-4-2--4--2-4-4-4-|


  E  E  S S S S E  E  S S S S    E  E  S S S S E  E   Q      
------------------------------|-----------------------------|
------------------------------|-----------------------------|
------------------------------|-----------------------------|
--2--4--2-4-4-4-2--4--2-4-4-4-|--2--4--2-4-4-4-2--4--12\----|


  |-3-|     |-3-|     |-3-|     |-3-|      
  S S S S S S S S S S S S S S S S S S S S  
------------------------------------------|
------------------------------------------|
------------------------------------------|
--4-4-4-4---4-4-4-4---4-4-4-4---4-4-4-4---|


  |-3-|     |-3-|                     
  S S S S S S S S S S S S S S S S E   
-------------------------------------|
-------------------------------------|
------------------------------0------|
--4-4-4-4---4-4-4-4---9-7-6-2---2-2--|


  |-3-|     |-3-|     |-3-|     |-3-|      
  S S S S S S S S S S S S S S S S S S S S  
------------------------------------------|
------------------------------------------|
------------------------------------------|
--4-4-4-4---4-4-4-4---4-4-4-4---4-4-4-4---|


  |-3-|     |-3-|                     
  S S S S S S S S S S S S S S S S E   
-------------------------------------|
-------------------------------------|
------------------------------0------|
--4-4-4-4---4-4-4-4---9-7-6-2---2-2--|


  |-3-|     |-3-|     |-3-|     |-3-|      
  S S S S S S S S S S S S S S S S S S S S  
------------------------------------------|
------------------------------------------|
------------------------------------------|
--4-4-4-4---4-4-4-4---4-4-4-4---4-4-4-4---|


  |-3-|     |-3-|                     
  S S S S S S S S S S S S S S S S E   
-------------------------------------|
-------------------------------------|
------------------------------0------|
--4-4-4-4---4-4-4-4---9-7-6-2---2-2--|


  |-3-|     |-3-|     |-3-|     |-3-|                                        
  S S S S S S S S S S S S S S S S S S S S    S S S S S S S S S S S S S S E   
------------------------------------------|---------------------------------|
------------------------------------------|---------------------------------|
------------------------------------------|---------------------------------|
--4-4-4-4---4-4-4-4---4-4-4-4---4-4-4-4---|--9-7-6-7-7-7-9-7-6-7-7-7-9-7-7--|


  S S S S S S S S S S S S S S S S    S S S S S S S S S S S S S S S S  
----------------------------------|----------------------------------|
----------------------------------|----------------------------------|
--5-5-5-5-5-5-5-5-4-4-4-4-9-9-9-9-|--7-7-7-7-7-7-7-7-7-7-7-7-7-7-7-7-|
----------------------------------|----------------------------------|


  S S S S S S S S S S S S S S S S    S S S S S S S S S S S S S S S S  
----------------------------------|----------------------------------|
----------------------------------|----------------------------------|
--5-5-5-5-5-5-5-5-4-4-4-4-9-9-9-9-|--7-7-7-7-7-7-7-7-7-7-7-7-7-7-7-7-|
----------------------------------|----------------------------------|


  S S S S S S S S S S S S S S S S    S S S S S S S S S S S S S S S S  
----------------------------------|----------------------------------|
----------------------------------|----------------------------------|
--5-5-5-5-5-5-5-5-4-4-4-4-9-9-9-9-|--7-7-7-7-7-7-7-7-7-7-7-7-7-7-7-7-|
----------------------------------|----------------------------------|


  S S S S S S S S S S S S S S S S    S S S S S S S S S S S S S S S S  
----------------------------------|----------------------------------|
----------------------------------|----------------------------------|
--5-5-5-5-5-5-5-5-4-4-4-4-9-9-9-9-|----------------------------------|
----------------------------------|--7-7-7-7-7-7-7-7-6-6-6-6-6-6-6-6-|


  S E.  S E.  S E.  S E.     S E.  S E.  S E.  S E.   
--------------------------|--------------------------|
--------------------------|--------------------------|
--------------------------|--------------------------|
--4-----4-----4-----4-----|--4-----4-----4-----4-----|


  S E.  S E.  S E.  S E.     S E.  S E.  Q    Q     
--------------------------|------------------------|
--------------------------|------------------------|
--------------------------|------------------------|
--4-----4-----4-----4-----|--4-----4----------9----|


  |-3-|     |-3-|     |-3-|     |-3-|      
  S S S S S S S S S S S S S S S S S S S S  
------------------------------------------|
------------------------------------------|
------------------------------------------|
--4-4-4-4---4-4-4-4---4-4-4-4---4-4-4-4---|


  |-3-|     |-3-|                     
  S S S S S S S S S S S S S S S S E   
-------------------------------------|
-------------------------------------|
------------------------------0------|
--4-4-4-4---4-4-4-4---9-7-6-2---2-2--|


  |-3-|     |-3-|     |-3-|     |-3-|      
  S S S S S S S S S S S S S S S S S S S S  
------------------------------------------|
------------------------------------------|
------------------------------------------|
--4-4-4-4---4-4-4-4---4-4-4-4---4-4-4-4---|


  |-3-|     |-3-|                     
  S S S S S S S S S S S S S S S S E   
-------------------------------------|
-------------------------------------|
------------------------------0------|
--4-4-4-4---4-4-4-4---9-7-6-2---2-2--|


  |-3-|     |-3-|     |-3-|     |-3-|      
  S S S S S S S S S S S S S S S S S S S S  
------------------------------------------|
------------------------------------------|
------------------------------------------|
--4-4-4-4---4-4-4-4---4-4-4-4---4-4-4-4---|


  |-3-|     |-3-|                     
  S S S S S S S S S S S S S S S S E   
-------------------------------------|
-------------------------------------|
------------------------------0------|
--4-4-4-4---4-4-4-4---9-7-6-2---2-2--|


  |-3-|     |-3-|     |-3-|     |-3-|                                        
  S S S S S S S S S S S S S S S S S S S S    S S S S S S S S S S S S S S E   
------------------------------------------|---------------------------------|
------------------------------------------|---------------------------------|
------------------------------------------|---------------------------------|
--4-4-4-4---4-4-4-4---4-4-4-4---4-4-4-4---|--9-7-6-7-7-7-9-7-6-7-7-7-9-7-7--|


  S S S S S S S S S S S S S S S S    S S S S S S S S S S S S S S S S  
----------------------------------|----------------------------------|
----------------------------------|----------------------------------|
--5-5-5-5-5-5-5-5-4-4-4-4-9-9-9-9-|--7-7-7-7-7-7-7-7-7-7-7-7-7-7-7-7-|
----------------------------------|----------------------------------|


  S S S S S S S S S S S S S S S S    S S S S S S S S S S S S S S S S  
----------------------------------|----------------------------------|
----------------------------------|----------------------------------|
--5-5-5-5-5-5-5-5-4-4-4-4-9-9-9-9-|--7-7-7-7-7-7-7-7-7-7-7-7-7-7-7-7-|
----------------------------------|----------------------------------|


  S S S S S S S S S S S S S S S S    S S S S S S S S S S S S S S S S  
----------------------------------|----------------------------------|
----------------------------------|----------------------------------|
--5-5-5-5-5-5-5-5-4-4-4-4-9-9-9-9-|--7-7-7-7-7-7-7-7-7-7-7-7-7-7-7-7-|
----------------------------------|----------------------------------|


  S S S S S S S S S S S S S S S S    S S S S S S S S S S S S S S S S  
----------------------------------|----------------------------------|
----------------------------------|----------------------------------|
--5-5-5-5-5-5-5-5-4-4-4-4-9-9-9-9-|----------------------------------|
----------------------------------|--7-7-7-7-7-7-7-7-6-6-6-6-6-6-6-6-|


  E  E  S S S S E  E  S S S S    E  E  S S S S E  E  S S S S  
------------------------------|------------------------------|
------------------------------|------------------------------|
------------------------------|------------------------------|
--2--4--2-4-4-4-2--4--2-4-4-4-|--2--4--2-4-4-4-2--4--2-4-4-4-|


  E  E  S S S S E  E  S S S S    E  E  S S S S E  E  S S S S  
------------------------------|------------------------------|
------------------------------|------------------------------|
------------------------------|------------------------------|
--2--4--2-4-4-4-2--4--2-4-4-4-|--2--4--2-4-4-4-2--4--2-4-4-4-|


  W                               E.   E.   E   H         
-------------------|-----------|------17---16---L--------|
-------------------|-----------|-------------------------|
-------------------|-----------|-------------------------|
--2----------------|-----------|--4----------------------|


   E.   E.   E  H           Q.      H        E      Q.      H        E   
--14---12---14--L--------|----------------------|-----------------------|
-------------------------|----------------------|-----------------------|
-------------------------|----------------------|-----------------------|
-------------------------|--9------10--------L--|--14------16--------L--|


  E.   E.   E   H            E.   E.   E  H           Q.      H        E   
------17---16---L--------|--14---12---14--L--------|----------------------|
-------------------------|-------------------------|----------------------|
-------------------------|-------------------------|----------------------|
--4----------------------|-------------------------|--9------10--------L--|


  S S S S S S S S S S S S S S S S    S S S S S S S S S S S S S S S S  
----------------------------------|----------------------------------|
----------------------------------|----------------------------------|
----------9-7-6-----------9-7-6---|----------9-7-6-----------9-7-6---|
--4-4-4-1-------8-4-4-4-1-------8-|--4-4-4-1-------8-4-4-4-1-------8-|


  S S S S S S S S S S S S S S S S    S S S S S S S S S S E  Q     
----------------------------------|------------------------------|
----------------------------------|------------------------------|
----------9-7-6-----------9-7-6---|----------9-7-6---------------|
--4-4-4-1-------8-4-4-4-1-------8-|--4-4-4-1-------8-4-----------|


  S S S S S S S S S S S S S S S S    S S S S S S S S S S S S S S S S  
----------------------------------|----------------------------------|
----------------------------------|----------------------------------|
----------9-7-6-----------9-7-6---|----------9-7-6-----------9-7-6---|
--4-4-4-1-------8-4-4-4-1-------8-|--4-4-4-1-------8-4-4-4-1-------8-|


  S S S S S S S S S S S S S S S S    S S S S S S S S S S S S S S S S  
----------------------------------|----------------------------------|
----------------------------------|----------------------------------|
----------9-7-6-----------9-7-6---|----------9-7-6-----------9-7-6---|
--4-4-4-1-------8-4-4-4-1-------8-|--4-4-4-1-------8-4-4-4-1-------8-|


  W                   S S S S S S S S S S S S S S E                           
-------------------|---------------------------------|-------|-------|-------|
-------------------|---------------------------------|-------|-------|-------|
-------------------|---------------------------------|-------|-------|-------|
--4----------------|--9-7-6-7-7-7-9-7-6-7-7-7-9-7-7--|-------|-------|-------|


  S S S S S S S S S S S S S S S S    S S S S S S S S S S S S S S S S  
----------------------------------|----------------------------------|
----------------------------------|----------------------------------|
----------------------------------|--5-5-5-5-5-5-5-5-4-4-4-4-9-9-9-9-|
--2-2-2-2-2-2-2-2-2-2-2-2-2-2-2-2-|----------------------------------|


  S S S S S S S S S S S S S S S S    S S S S S S S S S S S S S S S S  
----------------------------------|----------------------------------|
----------------------------------|----------------------------------|
--7-7-7-7-7-7-7-7-7-7-7-7-7-7-7-7-|--5-5-5-5-5-5-5-5-4-4-4-4-9-9-9-9-|
----------------------------------|----------------------------------|


  S S S S S S S S S S S S S S S S    S S S S S S S S S S S S S S S S  
----------------------------------|----------------------------------|
----------------------------------|----------------------------------|
--7-7-7-7-7-7-7-7-7-7-7-7-7-7-7-7-|--5-5-5-5-5-5-5-5-4-4-4-4-9-9-9-9-|
----------------------------------|----------------------------------|


  S S S S S S S S S S S S S S S S    S S S S S S S S S S S S S S S S  
----------------------------------|----------------------------------|
----------------------------------|----------------------------------|
--7-7-7-7-7-7-7-7-7-7-7-7-7-7-7-7-|--5-5-5-5-5-5-5-5-4-4-4-4-9-9-9-9-|
----------------------------------|----------------------------------|


  S S S S S S S S S S S S S S S S    S S S S S S S S S S S S S S S S  
----------------------------------|----------------------------------|
----------------------------------|----------------------------------|
--7-7-7-7-7-7-7-7-7-7-7-7-7-7-7-7-|--5-5-5-5-5-5-5-5-4-4-4-4-9-9-9-9-|
----------------------------------|----------------------------------|


  S S S S S S S S S S S S S S S S    S S S S S S S S S S S S S S S S  
----------------------------------|----------------------------------|
----------------------------------|----------------------------------|
--7-7-7-7-7-7-7-7-7-7-7-7-7-7-7-7-|--5-5-5-5-5-5-5-5-4-4-4-4-9-9-9-9-|
----------------------------------|----------------------------------|


  S S S S S S S S S S S S S S S S    E  E  S S S S E  E  S S S S  
----------------------------------|------------------------------|
----------------------------------|------------------------------|
----------------------------------|------------------------------|
--7-7-7-7-7-7-7-7-6-6-6-6-6-6-6-6-|--2--4--2-4-4-4-2--4--2-4-4-4-|


  E  E  S S S S E  E  S S S S    E  E  S S S S E  E  S S S S  
------------------------------|------------------------------|
------------------------------|------------------------------|
------------------------------|------------------------------|
--2--4--2-4-4-4-2--4--2-4-4-4-|--2--4--2-4-4-4-2--4--2-4-4-4-|


  E  E  S S S S E  E  S S S S    S S S S S S S S S S S S S S S S  
------------------------------|----------------------------------|
------------------------------|----------------------------------|
------------------------------|----------------------------------|
--2--4--2-4-4-4-2--4--2-4-4-4-|--4-4-4-2-4-4-4-2-4-4-4-2-4-4-4-2-|


  S S E  H.             
----------------------||
----------------------||
----------------------||
--4-------------------||




Duration Legend
---------------
W - whole
H - half
Q - quarter
E - 8th
S - 16th
T - 32nd
X - 64th
. - note dotted
|-n-|  - n-tuplets


Tablature Legend
----------------
L - tied note
x - dead note
g - grace note
(n) - ghost note
> - accentuded note
NH - natural harmonic
AH - artificial harmonic
TH - tapped harmonic
SH - semi harmonic
PH - pitch harmonic
h - hammer on
p - pull off
b - bend
br - bendRelease
pb - preBend
pbr - preBendRelease
brb - bendReleaseBend
\n/ - tremolo bar dip
\n - tremolo bar dive
-/n - tremolo bar Release up
/n\ - tremolo bar inverted dip
/n - tremolo bar return
-\n - tremolo bar Release down
S - shift slide
s - legato slide
/ -  slide into from below or out of upwards
\ -  slide into from above or out of downwards
~ - vibrato
W - wide vibrato
tr - trill
TP - tremolo picking
T - tapping
S - slap
P - pop
< - fade in
^ - brush up
v - brush down
            
Submit corrections


        We Dont Care Anymore lessons Hard to play? Try these video lessons and learn fast We Dont Care Anymore lessons
        
↑ Back to top | Tablatures and chords for acoustic guitar and electric guitar, ukulele, drums are parodies/interpretations of the original songs. You may use it for private study, scholarship, research or language learning purposes only