Home » S » Story Of The Year »

Story Of The Year - To The Burial Bass

Artists:  A B C D E F G H I J K L M N O P Q R S T U V W X Y Z # 

To The Burial Bass

(ver. 1) Click to play this song!
Story Of The Year
 Rating:
4/5 (4 votes)
                This is my Bass Tab to the awesome song "To The Burial" by Story Of The Year.
Be careful while playing this song on the accentuations, so listen carefully before 
playing the song.
In my opinion, it should be all correct,but if I made a mistake, send a message.

And please don't forget to rate!
Have Fun! :)

Intro
Gb|----------------|----------------|----------------|----------------|
Db|--5-3-----------|----------------|--5-3-----------|----------------|
Ab|5-----3-5-3-5~~~|~~~~~~~~~~~~~~~~|5-----3-5-3-5~~~|~~~~~~~~--------|
Eb|----------------|----------------|----------------|--------3\\\\///|
   E E E E E E Q    W                E E E E E E Q    H       H

Gb|----------------|----------------|----------------|----------------|
Db|--5-3-----------|----------------|--5-3-----------|----------------|
Ab|5-----3-5-3-5~~~|~~~~~~~~~~~~~~~~|5-----3-5-3-5~~~|5---------------|
Eb|----------------|----------------|----------------|--------3\\\\///|
   E E E E E E Q    W                E E E E E E Q    E Q     H

Chorus
Gb|----------------|----------------|----------------|----------------|
Db|--5-3-----------|--5-3-------3~~~|--5-3-----------|--5-3-------3-3-|
Ab|5-----3-5-3-5~~~|5-----3-5-3-----|5-----3-5-3-5~~~|5-----3-5-3-----|
Eb|----------------|----------------|----------------|----------------|
   E E E E E E Q    E E E E E E Q    E E E E E E Q    E E E E E E E E

Gb|----------------|----------------|----------------|----------------|
Db|--5-3-----------|--5-3-------3~~~|--5-3-----------|x-3-3~~~--------|
Ab|5-----3-5-3-5~~~|5-----3-5-3-----|5-----3-5-3-5~~~|--------x-3-3~~~|
Eb|----------------|----------------|----------------|----------------|
   E E E E E E Q    E E E E E E Q    E E E E E E Q    E E Q   E E Q

Pre-Verse 1
Gb|----------------|----------------|
Db|----------------|5~~3~~----------|
Ab|5---------------|------3~~~3-3-3-|
Eb|----------------|----------------|
   E E H.           E. E. Q   E E E

Verse
Gb|----------------|----------------|----------------|----------------|
Db|----------3-----|5~~3~~----------|----------3-----|3~~-------------|
Ab|5~~3~~5~~~--5-3-|------3~~~3-3-3-|5~~3~~5~~~--5-3-|---3~~3~~~3-3-3-| 2x
Eb|----------------|----------------|----------------|----------------|
   E. E. Q   E E E  E. E. Q   E E E  E. E. Q   E E E  E. E. Q   E E E

Pre-Chorus
Gb|----------------|----------------|----------------|----------------|
Db|--5-3-----------|--5-3-----------|--5-3-----------|----------------|
Ab|5-----3-33333333|5-----3-33333333|5-----3-33333333|----------------|
Eb|----------------|----------------|----------------|2~~2~~2-2-------|
   E E E E SSSSSSSS E E E E SSSSSSSS E E E E SSSSSSSS E. E. E E Q.

Chorus

Pre-Verse 2
Gb|----------------|
Db|----------------|
Ab|5---------------|
Eb|----------------|
   E E H.

Verse

Pre-Chorus 2
Gb|----------------|----------------|----------------|----------------|
Db|--5-3-----------|--5-3-----------|--5-3-----------|----------------|
Ab|5-----3-33333333|5-----3-33333333|5-----3-33333333|----------------|
Eb|----------------|----------------|----------------|2~~2~~2-2---15/~|
   E E E E SSSSSSSS E E E E SSSSSSSS E E E E SSSSSSSS E. E. E E E Q

Chorus

Bridge Part 1
Gb|----------------|----------------|----------------|----------------|
Db|----------------|----------------|----------------|----------------|
Ab|5-5-5~~~--------|----------------|5-5-5~~~--------|----------------|
Eb|----------------|----------------|----------------|----------------|
   E E Q   H        F                E E Q   H        F

Gb|----------------|----------------|----------------|----------------|
Db|----------------|----------------|----------------|----------------|
Ab|1-1-1~~~--------|----------------|3-3-3-3-3-3-3-3-|3~~~~~~~~~~~----|
Eb|----------------|----------------|----------------|------------15/~|
   E E Q   H        F                E E E E E E E E  H       Q   Q

Bridge Part 2
Gb|----------------|----------------|----------------|----------------|
Db|3~~2~~----------|3~~2~~----------|3~~2~~----------|----------------|
Ab|------3~~~3-3-3-|------1~~~1-1-1-|------3~~~3-3-3-|5-3-3-5-3-3-5-3-| 2x
Eb|----------------|----------------|----------------|----------------|
   E. E. Q   E E E  E. E. Q   E E E  E. E. Q   E E E  E E E E E E E E

Gb|----------------|
Db|----------------|
Ab|5-3-3-5-3-3-5-3-|
Eb|----------------|
   E E E E E E E E

Bridge Part 3
Gb|----------------|----------------|----------------|----------------|
Db|----------------|5~~3~~----------|----------------|----------------|
Ab|5---------------|------3~~~3-3-3-|5---------------|----------------|
Eb|----------------|----------------|----------------|3~~3~~4~~~~~~~~~|
   E E H.           E. E. Q   E E E  E E H.           E. E. Q   Q.

Bass while Solo
Gb|----------------|----------------|
Db|----------3-----|5~~3~~----------|
Ab|5~~3~~5~~~--5-3-|------3~~~3-3-3-| 4x
Eb|----------------|----------------|
   E. E. Q   E E E  E. E. Q   E E E

Pre-Chorus 3
Gb|----------------|----------------|----------------|----------------|
Db|--5-3-----------|--5-3-----------|--5-3-----------|----------------|
Ab|5-----3-33333333|5-----3-33333333|5-----3-33333333|----------------|
Eb|----------------|----------------|----------------|2~~2~~2-2~~2~~2-|
   E E E E SSSSSSSS E E E E SSSSSSSS E E E E SSSSSSSS E. E. E E. E. E

Gb|----------------|
Db|----------------|
Ab|----------------|
Eb|2~~2~~2-2~~0~~2-|
   E. E. E E. E. E

Slow Chorus (= Intro)

Chorus

Outro
Gb|----------------|----------------|----------------|----------------|
Db|x-3-3~~~--------|3-3-2-3-2-------|----------------|----------------|
Ab|--------x-3-3~~~|----------5-3-5~|~~~~~~~~~~~~~~~~|~~~~~~~~~~~~~~~~|
Eb|----------------|----------------|----------------|----------------|
   E E Q   E E Q    E E E E E E E E  F                F

F = Full note
H = Half note
Q = Quarter note
E = Eighth note
S = Sixteenth note
. = makes the note a half longer
\ = Slide up
/ = Slide down
h = Hammer-on
p = Pull-off
b = Bending
X = Mute note
            
Submit corrections

↑ Back to top | Tablatures and chords for acoustic guitar and electric guitar, ukulele, drums are parodies/interpretations of the original songs. You may use it for private study, scholarship, research or language learning purposes only