» » »

Story Of The Year - Symphony Tabs

Artists:  A B C D E F G H I J K L M N O P Q R S T U V W X Y Z # 

Symphony Tabs

(ver. 1) Click to play this song!
Story Of The Year
 Rating:
4/5 (4 votes)

 Symphony lessons Tabs too difficult? Try these video lessons and learn fast
 
                Palm mute= .
Hammer= h
Pull off= p
Harmonic- *

Verse 3x  
e|--------------------------------------------------
B|--------------------------------------------------
G|---------------7h8-7------------7h8-7-------------
D|-0000-0000-----------h10-7h8----------h10-7h8-----
A|-0000-0000----------------------------------------
D|-0000-0000----------------------------------------   

   .... ....                                                          

Last time of the verse
e|-------------------------------
B|-------------------------------
G|-----------7h8p7h8p7h8p7h8-88--
D|-0000-0000---------------------
A|-0000-0000---------------------
D|-0000-0000---------------------
   .... ....

Pre-Chorus 1x                                           
e|-------------------------------------
B|-------------------------------------
G|-10~---------------------------------
D|--8~----------10~----10-10-10--------
A|--8~----------10~----10-10-10--------
D|--8~----------10~----10-10-10--------


Chorus
e|----------------------------------------------------
B|----------------------------------------------------
G|----------------------------------------------------
D|-0-0-0-10-10-10-0-0-0-10-10-10-(8)------------------
A|-0-0-0-10-10-10-0-0-0-10-10-10-(8)<Figure out strumming pattern>
D|-0-0-0-10-10-10-0-0-0-10-10-10-(8)------------------

Verse 
Pre-chorus
Chorus

Bridge-2x                                          play the ( ) after the 2nd time 
e|------------------------------------------------------
B|------------------------------------------------------
G|----14-14/15-----14-14/15-----------------------------
D|-00--X--X/ X--00--X--X/ X-88-88-(88-88)----------------
A|-00-12-12/13--00-12-12/13-88-88-(88-88)---------------
D|-00-----------00----------88-88-(88-88)---------------
   ..           ..





Bridge cont. 4x               on some of the notes pull off 0

e|------------------------------------------
B|------------------------------------------
G|--------7---------------------------------
D|-00-8-7---8-7-8-00-8-7-00-8-7--8-10-------
A|-------------------------------8-10-------
D|-------------------------------8-10-------
   ..             ..       ..

Pre-chorus
Chorus 

Outro 

e|-------------------------------------------------------------
B|-------------------------------------------------------------
G|----------------------------------------------------------7*-
D|-0000-0000-0000-888-0000-0000-0000-888-0000-0000-0000--------
A|-0000-0000-0000-888-0000-0000-0000-888-0000-0000-0000--------
D|-0000-0000-0000-888-0000-0000-0000-888-0000-0000-0000--------
            
Submit corrections


        Symphony lessons Hard to play? Try these video lessons and learn fast Symphony lessons
        
↑ Back to top | Tablatures and chords for acoustic guitar and electric guitar, ukulele, drums are parodies/interpretations of the original songs. You may use it for private study, scholarship, research or language learning purposes only