» » »

Story Of The Year - Story Of The Year Tabs

Artists:  A B C D E F G H I J K L M N O P Q R S T U V W X Y Z # 

Story Of The Year Tabs

(ver. 1) Click to play this song!
Story Of The Year
 Rating:
4/5 (4 votes)

 Story Of The Year lessons Tabs too difficult? Try these video lessons and learn fast
 
                -|----------------------------------------------------------------------------
-|----------------------------------------------------------------------------
-|----------------------------------------------------------------------------
-|------------------5-5-5-5-5-5-5-5-5-5-5-5-5-5-5-5-5-------------------------
-|------------------5-5-5-5-5-5-5-5-5-5-5-5-5-5-5-5-5-------------------------
-|------------------3-3-3-3-3-3-3-3-3-3-3-3-3-3-3-3-3-------------------------
  INTRO fade in...                                                            

-|----------------------------------------------------------------------------
-|----------------------------------------------------------------------------
-|-------------------7xx6xx6xx6h7------------------7xx6xx6xx6h7---------------
-|-------7-----7-----7xx7xx7xx7-7------------------7xx7xx7xx7-7---------------
-|---5-5-5-5-5-5-5-5---------------5-5-5-5-5-5-5-5----------------------------
-|----------------------------------------------------------------------------
 VERSE PM............................................ repeat a lot of times   

-|----------------------------------------------------------------------------
-|----------------------------------------------------------------------------
-|----------------------------------------------------------------------------
-|-------------------------------------------7-7-7-7-7-7----------------------
-|-------------------------------------------7-7-7-7-7-7----5-5-5-------------
-|-------------------------------------------5-5-5-5-5-5----3-2-3-------------
  gt.2 comes in and last time before chorus                                   

-|----------------------------------------------------------------------------
-|----------------------------------------------------------------------------
-|-----------------------------7-7--------------------------------------------
-|-----------------------------7-7--------------------------------------------
-|-----------------------------5-5---7-7--5-xxxx------------------------------
-|-----------------------------------5-5--3-xxxx------------------------------
 CHORUS "when I give you the finger"                repeat                    

-|----------------------------------------------------------------------------
-|----------------------------------------------------------------------------
-|------------------------------------------------------------------7---------
-|-------------------7-7----------------------5---------------------7---------
-|-------------------5-5--7h9---9-9--10h12----5---------------------5---------
-|------------------------------7-7-----------3-------------------------------
 AFTER 2nd CHORUS                               let ring/last time    ring... 

-|----------------------------------------------------------------------------
-|----------------------------------------------------------------------------
-|----------------9--9--9--9--7--7--7--76h7-----------------------------------
-|----------0-0-0--00-00-00-0--00-00-00----xxx7xx7xx7-------------------------
-|----------------------------------------------------------------------------
-|----------------------------------------------------------------------------
 INTERLUDE PM..... .. .. .. .                    It goes something like that  

-|----------------------------------------------------------------------------
-|----------------------------------------------------------------------------
-|----------------------------------------------------------------------------
-|---------7-7-7-7-7-7----7-7-7-7-7-7-------------------7-7-7-7-7-7-----------
-|---------5-5-5-5-5-5----6-6-6-6-6-6----5-5-5-5-5-5----6-6-6-6-6-6----5-5-5--
-|---------------------------------------3-3-3-3-3-3-------------------3-2-3--
   then...                                                          2X        

-|----------------------------------------------------------------------------
-|----------------------------------------------------------------------------
-|----------------------------------------------------------------------------
-|-------------7-7-7-7-7-7--7-7-7-7-7-7-------------7-7-7-7-7-7-------7-------
-|-------------5-5-5-5-5-5--6-6-6-6-6-6-5-5-5-5-5-5-6-6-6-6-6-6-------5-------
-|--------------------------------------3-3-3-3-3-3---------------------------
 back to CHORUS    -play a little bit with the strings-            END  ....
            
Submit corrections


        Story Of The Year lessons Hard to play? Try these video lessons and learn fast Story Of The Year lessons
        
↑ Back to top | Tablatures and chords for acoustic guitar and electric guitar, ukulele, drums are parodies/interpretations of the original songs. You may use it for private study, scholarship, research or language learning purposes only