» » »

Story Of The Year - So Far So Good Tabs

Artists:  A B C D E F G H I J K L M N O P Q R S T U V W X Y Z # 

So Far So Good Tabs

(ver. 1) Click to play this song!
Story Of The Year
 Rating:
4/5 (4 votes)

 So Far So Good lessons Tabs too difficult? Try these video lessons and learn fast
 
                -|----------------------------------------------------------------------------
-|----------------------------------------------------------------------------
-|----------------------------------------------------------------------------
-|---9-----------------12-12-12---------------------------12-12-12------------
-|---7-7-7--7-7-7-9-10----------10-7-9-10-10-10-10-97h9-10--------------------
-|----------------------------------------------------------------------------
  INTRO clean...                                                              

-|----------------------------------------------------------------------------
-|----------------------------------------------------------------------------
-|----------------------------------------------------------------------------
-|---9-----------------12-12-12--121212--121212-1212---9----------------------
-|---7-7-7--7-7-7-9-10---------------------------------7----------------------
-|----------------------------------------------------------------------------
                                                          let ring...         

-|----------------------------------------------------------------------------
-|----------------------------------------------------------------------------
-|----7\-9-9-9---------7--9-9-9-----------------------------------------------
-|----7\-9-9-9--10-----7--9-9-9--10-12----------------------------------------
-|----5\-7-7-7--10-----5--7-7-7--10-12----------------------------------------
-|--------------8----------------8--10----------------------------------------
  INTRO 2 with distortion                     repeat 4 x                      

-|----------------------------------------------------------------------------
-|----------------------------------------------------------------------------
-|---------7\-9-9-9------7--9-9-9---------------------------------------------
-|---------7\-9-9-9--10--7--9-9-9---------------------------------------------
-|---------5\-7-7-7--10--5--7-7-7-10-10-10-10-10--12-12-12-12-12-12-12--------
-|-------------------8------------8-8-8-8-8-8-8---10-10-10-10-10-10-10--------
   then last time                                                             

-|----------------------------------------------------------------------------
-|----------------------------------------------------------------------------
-|---12-12-12-12---11-11-11-11------------------------------------------------
-|----x--x--x--x----x--x--x--x------------------------------------------------
-|---10-10-10-10----9--9--9--9------------------------------------------------
-|----------------------------------------------------------------------------
                                  then to VERSE                               

-|----------------------------------------------------------------------------
-|----------------------------------------------------------------------------
-|--------------9-------9----------------------------7---7--1212-12-12111111--
-|----------9-9-9---9-9-9--------10--------10----7-7-7-7-7---x-x--x--x-x-x-x--
-|----------7-7-7---7-7-7--10-10-10--10-10-10----5-5-5-5-5--1010-10-10-9-9-9--
-|--------------------------8--8--8---8--8--8---------------------------------
  VERSE  PM.................................................................. 

-|----------------------------------------------------------------------------
-|----------------------------------------------------------------------------
-|---9-9-9--11-11-11-11---12-12-12-12------11-11-11-11----12-12-12-12---------
-|---9-9-9---x--x--x--x----x--x--x--x--12---x--x--x--x-----x--x--x--x---------
-|---7-7-7---9--9--9--9---10-10-10-10--12---9--9--9--9----10-10-10-10-----12--
-|-------------------------------------10---------------------------------10--
  AFTER VERSE                                              4x then to CHORUS  

-|----------------------------------------------------------------------------
-|----------------------------------------------------------------------------
-|--------9----------9--------------------------------------------------------
-|--------9----10----9----10-10--12-12----------------------------------------
-|--------7----10----7----10-10--12-12-----------------------10-------12------
-|--------------8----------8--8--10-10------------------------8-------10------
  CHORUS                                 2nd time at the end  let ring.....   

-|----------------------------------------------------------------------------
-|----------------------------------------------------------------------------
-|-------\--9v9v9v9v--11-11-11-11---12-12-12-12-12-12/14\12-11----------------
-|-------\--9-9-9-9----x--x--x--x----x--x--x--x--x--x/-x\-x--x----------------
-|-------\--7-7-7-7----9--9--9--9---10-10-10-10-10-10/12\10--9----------------
-|----------------------------------------------------------------------------
  INTERLUDE                                            repeat 4x              

-|-------------------|--------------------------------------------------------
-|-------------------|--------------------------------------------------------
-|-------------------|---------9----------------------------------------------
-|-------------------|---------9----------2-----------------------------------
-|-------------------|---------7----------2-----------------------------------
-|-------------------|--------------------0-----------------------------------
  then back to INTRO   END       .......
            
Submit corrections


        So Far So Good lessons Hard to play? Try these video lessons and learn fast So Far So Good lessons
        
↑ Back to top | Tablatures and chords for acoustic guitar and electric guitar, ukulele, drums are parodies/interpretations of the original songs. You may use it for private study, scholarship, research or language learning purposes only