» » »

Story Of The Year - Never Let It Go Tabs

Artists:  A B C D E F G H I J K L M N O P Q R S T U V W X Y Z # 

Never Let It Go Tabs

(ver. 1) Click to play this song!
Story Of The Year
 Rating:
4/5 (4 votes)

 Never Let It Go lessons Tabs too difficult? Try these video lessons and learn fast
 
                
This is a fair amount of the song, but it is missing a few bits. The solo is pretty 
to perfect but the intro may be abit wrong because of the effects used. Post up any missing 
or corrections (Y)

Intro
(some kind of echo/delay effect)

e|-------13-15-15-----18p15-18p15-------|
B|----15--------------------------16-18-|
G|-12--------------15-------------------| Repeat 4 times
D|--------------------------------------|
A|--------------------------------------|
E|--------------------------------------|


Verse 1
e|-3-3333333---6-6666666----8---8-8---8---8-8-8-8----8---8-8---8---8-8-8-8-|
B|-5-5555555---6-6666666----8---8-8---8---8-8-8-8----8---8-8---8---8-8-8-8-|
G|-------------8-8888888----10--1010--10--10101010---10--1010--10--10101010|
D|-------------8-8888888----10--1010--10--10101010---10--1010--10--10101010|
A|-------------------------------------------------------------------------|
E|-------------------------------------------------------------------------|
    .......      .......        . .        . . . .        . .       . . . .
      PM           PM           PM            PM          PM           PM


Verse 1
e|-3-3333333---6-6666666----8---8-8---8---8-8-8-8----8---8-8---8---8-8-|
B|-5-5555555---6-6666666----8---8-8---8---8-8-8-8----8---8-8---8---8-8-|
G|-------------8-8888888----10--1010--10--10101010---10--1010--10--1010|
D|-------------8-8888888----10--1010--10--10101010---10--1010--10--1010|
A|---------------------------------------------------------------------|
E|---------------------------------------------------------------------|
    .......      .......        . .        . . . .        . .       . .
      PM           PM           PM            PM          PM         PM

G|--------------|
e|--------------|
B|--------------|
D|-10-8---------|
A|------10-8----|
E|-----------11-|
             AH

The next bit is a bunch of these chords thrown together with some palm muting, you can 
the tune out.
e|-----------|
B|--3--5--1--|
G|--5--7--3--|
D|-----------|
A|-----------|
E|-----------|


Chorus
e|---------------------------------|
B|-10...-6...---8 ...--------------|  Strum the first 2 chords six times
G|-12...-8...---10...--------------|  and strum the 3rd chord 12 times.
D|---------------------------------|
A|---------------------------------|
E|---------------------------------|

e|--------------------x-x-x-x-8~---------|
B|-10...-6...---8 ...-x-x-x-x-8~---------|  Strum the first 3 chords chords
G|-12...-8...---10...-x-x-x-x-8~---------|  six times
D|---------------------------------------|
A|---------------------------------------|
E|---------------------------------------|

SOLO

e|-15-15-15----------------|-----------18---18---18---18---|
B|-18b---18b-18-----18-18b-|-18-15--18b--18b--18b--18b--18b|
G|--------------17b--------|-------------------------------|
D|-------------------------|-------------------------------|
A|-------------------------|-------------------------------|
E|-------------------------|-------------------------------|


e|---------------------------------|
B|-18 trill 15---------------------|
G|--------------17 trill 15--------| x4
D|---------------------------------|
A|---------------------------------|
E|---------------------------------|

e|------------|
B|-----18-----|
G|-17b----17b-|
D|------------|
A|------------|
E|------------|


e|------------------------------------|
B|-------------------6---6-3-6-3-6b-6-|
G|-------------3b--5------------------|
D|-0--5~~~~--3------------------------|
A|------------------------------------|
E|------------------------------------|
      legato

e|---3--6---6/18--15----|
B|-6------------------15|
G|----------------------|
D|----------------------|
A|----------------------|
E|----------------------|

e|--18 trill 15---------------|
B|---------------18 trill 15--|
G|----------------------------| x4
D|----------------------------|
A|----------------------------|
E|----------------------------|

e|---17~~~~-------|
B|---20b~~~-------|
G|----------------|
D|----------------|
A|----------------|
E|----------------|

As i said before there are some parts missing so feel free to send me any new parts or 
corrections. I doubt its 100% but its a start so enjoy.

Send corrections to
            
Submit corrections


        Never Let It Go lessons Hard to play? Try these video lessons and learn fast Never Let It Go lessons
        
↑ Back to top | Tablatures and chords for acoustic guitar and electric guitar, ukulele, drums are parodies/interpretations of the original songs. You may use it for private study, scholarship, research or language learning purposes only