» » »

Story Of The Year - Message To The World Tabs

Artists:  A B C D E F G H I J K L M N O P Q R S T U V W X Y Z # 

Message To The World Tabs

(ver. 1) Click to play this song!
Story Of The Year
 Rating:
4/5 (4 votes)

 Message To The World lessons Tabs too difficult? Try these video lessons and learn fast
 
                Here's a new acoustic tab for Story Of The Year - Message To The World from their new
album, The Black Swan. THE BEST SONG I HAVE HEARD FROM STOY SINCE ANTHEM OF OUR DYING DAY!!
set of tabs up. It is fairly straightforward.
The singing should be done in a low voice to suit this guitar style. Just check out the
own one up, so it's comfortable to you. But try to make sure you are following the tabs 
the lyrics so you know where the breaks are. If you're reading the lyrics above the
it's not that I don't know how to spell, it's just that the break/change in strumming 
be around that point of the initial letters of the words of the lyrics.
I'm sorry if the tabs aren't exactly right but hey I'm a novice myself, so just try it
and ENJOY!!!


   *Intro/Verse 1*
           Another world collides      Will we open the door
   |---3-----------3---3---3---3---0---0---0---0---0---3---3|
   |---3-----------3---3---3---3---3---3---3---3---3---3---3|
   |---0-----------0---0---0---0---0---0---0---0---0---0---0|
   |---2-----------2---2---2---2---2---2---2---2---2---2---2|
   |---2-----------2---2---2---2---2---2---2---2---2---2---2|
   |---0-----------x---x---x---x---0---0---0---0---0---x---x|

       A mes...world seems like
   |---3---3---0---0---0---0---3|
   |---3---3---3---3---3---3---3|
   |---0---0---0---0---0---0---0|
   |---2---2---2---2---2---2---2|
   |---2---2---3---3---3---3---2|
   |---x---x---0---0---0---0---x|

       Everyone ha.god     Standing up for what we thi.we know
   |---3---3---3---0---0---0---0---0---0---3---3---3---3---3|
   |---3---3---3---3---3---3---3---3---3---3---3---3---3---3|
   |---0---0---0---0---0---0---0---0---0---0---0---0---0---0|
   |---2---2---2---2---2---2---2---2---2---2---2---2---2---2|
   |---2---2---2---2---2---2---2---2---2---2---2---2---2---3|
   |---x---x---x---0---0---0---0---0---0---0---0---0---0---0|


   *Pre-Chorus 1*
   Do..know        We..so far to go from here
   |---2---2---2---2---3---3---3---3---3---2|
   |---3---3---3---3---3---3---3---3---3---3|
   |---2---2---2---2---0---0---0---0---0---2|
   |---0---0---0---0---2---2---2---2---2---0|
   |---0---0---0---0---2---2---2---2---2---0|
   |---0---0---0---0---0---0---0---0---0---0|

               We..so much to lose with American eyes
   |---2---2---2---3---3---3---3---3---0---0---0---0|
   |---3---3---3---3---3---3---3---3---3---3---3---3|
   |---2---2---2---0---0---0---0---0---0---0---0---0|
   |---0---0---0---2---2---2---2---2---2---2---2---2|
   |---0---0---0---2---2---2---2---2---3---3---3---3|
   |---0---0---0---0---0---0---0---0---0---0---0---0|

   The curious hearts We've got so much to learn so we find, we find
   |---3---3---3---3---3---3---3---3---3---3---3---3---3---3---0---|
   |---3---3---3---3---3---3---3---3---3---3---3---3---3---3---5---|
   |---0---0---0---0---0---0---0---0---0---0---0---2---2---2---5---|
   |---0---0---0---0---0---0---0---0---0---0---0---2---2---2---5---|
   |---2---2---2---2---2---0---0---0---0---0---0---0---0---0---0---|
   |---3---3---3---3---3---0---0---0---0---0---0---0---0---0---0---|


   *Chorus 1*
         Wh.you.ki.me,       Do.it.sloly,     when we've come undone
   |-----0----------0--------0--------0---3---3---3---3---3---3---0---|
   |-----3----------5--------8--------5---3---3---3---3---3---3---3---|
   |-----x----------x--------0--------x---0---0---0---0---0---0---2---|
   |-----2----------4--------x--------4---0---0---0---0---2---2---2---|
   |3-3--3-----5-5--5---7-7--7---5-5--5---2---2---2---2---3---3---0---|
   |3-3--3-----5-5--5---7-7--7---5-5--5---3---3---3---3---0---0---0---|

         Wh.you.ki.me,  Ple.Do..sloly,    Send..mes.to...world
   |-----0----------0---0---0---0---0---3---3---3---3---0-------|
   |-----3----------5---8---8---5---3---3---3---3---3---3-------|
   |-----x----------x---0---0---x---x---0---0---0---0---2-------|
   |-----2----------4---x---x---4---2---0---0---2---0---2-------|
   |3-3--3-----5-5--5---7---7---5---3---2---2---3---2---0-------|
   |3-3--3-----5-5--5---7---7---5---3---3---3---0---3---0-------|

   *Verse 2*
           Another woar will rise      Will we open the floor
   |---3-----------3---3---3---3---0---0---0---0---0---3---3|
   |---3-----------3---3---3---3---3---3---3---3---3---3---3|
   |---0-----------0---0---0---0---0---0---0---0---0---0---0|
   |---2-----------2---2---2---2---2---2---2---2---2---2---2|
   |---2-----------2---2---2---2---2---2---2---2---2---2---2|
   |---0-----------x---x---x---x---0---0---0---0---0---x---x|

       Listen...words..seems like
   |---3---3---0---0---0---0---3|
   |---3---3---3---3---3---3---3|
   |---0---0---0---0---0---0---0|
   |---2---2---2---2---2---2---2|
   |---2---2---3---3---3---3---2|
   |---x---x---0---0---0---0---x|

       Every voice ha.cause    Fighting for a world we thi.we own
   |---3---3---3---0---0---0---0---0---0---3---3---3---3---3|
   |---3---3---3---3---3---3---3---3---3---3---3---3---3---3|
   |---0---0---0---0---0---0---0---0---0---0---0---0---0---0|
   |---2---2---2---2---2---2---2---2---2---2---2---2---2---2|
   |---2---2---2---2---2---2---2---2---2---2---2---2---2---3|
   |---x---x---x---0---0---0---0---0---0---0---0---0---0---0|


   *Pre-Chorus 2*
   Do..know        We..so far to go from here
   |---2---2---2---2---3---3---3---3---3---2|
   |---3---3---3---3---3---3---3---3---3---3|
   |---2---2---2---2---0---0---0---0---0---2|
   |---0---0---0---0---2---2---2---2---2---0|
   |---0---0---0---0---2---2---2---2---2---0|
   |---0---0---0---0---0---0---0---0---0---0|

               We..so much to lose with American eyes
   |---2---2---2---3---3---3---3---3---0---0---0---0|
   |---3---3---3---3---3---3---3---3---3---3---3---3|
   |---2---2---2---0---0---0---0---0---0---0---0---0|
   |---0---0---0---2---2---2---2---2---2---2---2---2|
   |---0---0---0---2---2---2---2---2---3---3---3---3|
   |---0---0---0---0---0---0---0---0---0---0---0---0|

   The curious hearts We've got so much to learn so we find, we find
   |---3---3---3---3---3---3---3---3---3---3---3---3---3---3---0---|
   |---3---3---3---3---3---3---3---3---3---3---3---3---3---3---5---|
   |---0---0---0---0---0---0---0---0---0---0---0---2---2---2---5---|
   |---0---0---0---0---0---0---0---0---0---0---0---2---2---2---5---|
   |---2---2---2---2---2---0---0---0---0---0---0---0---0---0---0---|
   |---3---3---3---3---3---0---0---0---0---0---0---0---0---0---0---|


   *Chorus 2*
         Wh.you.ki.me,       Do.it.sloly,     when we've come undone
   |-----0----------0--------0--------0---3---3---3---3---3---3---0---|
   |-----3----------5--------8--------5---3---3---3---3---3---3---3---|
   |-----x----------x--------0--------x---0---0---0---0---0---0---2---|
   |-----2----------4--------x--------4---0---0---0---0---2---2---2---|
   |3-3--3-----5-5--5---7-7--7---5-5--5---2---2---2---2---3---3---0---|
   |3-3--3-----5-5--5---7-7--7---5-5--5---3---3---3---3---0---0---0---|

         Wh.you.ki.me,  Ple.Do..sloly,    Send..mes.to...world
   |-----0----------0---0---0---0---0---3---3---3---3---0-------|
   |-----3----------5---8---8---5---3---3---3---3---3---3-------|
   |-----x----------x---0---0---x---x---0---0---0---0---2-------|
   |-----2----------4---x---x---4---2---0---0---2---0---2-------|
   |3-3--3-----5-5--5---7---7---5---3---2---2---3---2---0-------|
   |3-3--3-----5-5--5---7---7---5---3---3---3---0---3---0-------|


   *Bridge 1*
   The.learn                 Thereo so.live for
   |---x---x---x---x---x---x---x---x---x---x---x---x|
   |---8---8---8---8---7---7---7---7---8---8---8---8|
   |---0---0---0---0---0---0---0---0---0---0---0---0|
   |---5---5---5---5---7---7---7---7---5---5---5---5|
   |---7---7---7---7---5---5---5---5---7---7---7---7|
   |---0---0---0---0---0---0---0---0---0---0---0---0|

               More.will   ever know     A mes..world
   |---x---x---x---x---x---0---0---0---0--------3---|
   |---7---7---7---7---7---5---5---5---5--------3---|
   |---0---0---0---0---0---0---0---0---0--------0---|
   |---7---7---7---7---7---5---5---5---5--------2---|
   |---5---5---5---5---5---3---3---3---3--------2---|
   |---0---0---0---0---0---0---0---0---0--------0---|


   *SOLO* (YOU can make that part up to whatever you like)


   *Bridge 2/Pre-Chorus 2* (PALM MUTE)
        Wh..ki.me,      Do.it.sloly     whe.come..undone
   |---------------------------------------------------------------|
   |---------------------------------------------------------------|
   |---------------------------------------------------------------|
   |---------------------------------------------------------------|
   |2-2-2-2-2-2-2-2-0-0-0-0-0-0-0-0-2-2-2-2-2-2-2-2-0-0-0-0-0-0-0-0|
   |0-0-0-0-3-3-3-3-0-0-0-0-5-5-5-5-0-0-0-0-3-3-3-3-0-0-0-0-0-0-0-0|
    . . . . . . . . . . . . . . . . . . . . . . . . . . . . . . . .


   *Chorus 3*
         Wh.you.ki.me,       Do.it.sloly,     when we've come undone
   |-----0----------0--------0--------0---3---3---3---3---3---3---0---|
   |-----3----------5--------8--------5---3---3---3---3---3---3---3---|
   |-----x----------x--------0--------x---0---0---0---0---0---0---2---|
   |-----2----------4--------x--------4---0---0---0---0---2---2---2---|
   |3-3--3-----5-5--5---7-7--7---5-5--5---2---2---2---2---3---3---0---|
   |3-3--3-----5-5--5---7-7--7---5-5--5---3---3---3---3---0---0---0---|

         Wh.you.ki.me,  Ple.Do..sloly,    Send..mes.to...world
   |-----0----------0---0---0---0---0---3---3---3---3---0-------|
   |-----3----------5---8---8---5---3---3---3---3---3---3-------|
   |-----x----------x---0---0---x---x---0---0---0---0---2-------|
   |-----2----------4---x---x---4---2---0---0---2---0---2-------|
   |3-3--3-----5-5--5---7---7---5---3---2---2---3---2---0-------|
   |3-3--3-----5-5--5---7---7---5---3---3---3---0---3---0-------|

user name 'rilu10'.
Here is the lyrics for this song:

Another world collides, will we open the door
A message to the world it seems like
Everyone has a god standing up for what we think we know
Do we know?

We've got so far to go from here
And we've got so much to lose
With American eyes, yeah
And curious hearts, we've got so much to learn
So we find, we find

When you kill me, do it slowly
When we've come undone
When you kill me, please do it slowly
Send a message to the world (A message to the world)

Another war will rise, will we open the floor
Listen to the words it seems like
Everyone has a cause fighting for a world we think we own
But do we know?

We've got so far to go from here
And we've got so much to lose
With American eyes, yeah
And curious hearts, we've got so much to learn
So we find (we find!)

When you kill me, do it slowly
When we've come undone
When you kill me, please do it slowly
Send a message to the world (A message to the world)
Send a message to the world

There's so much more to learn
There's so much more to live for (So much more to live for)
More than we will ever know
It's a message to the world


When you kill me, do it slowly
When we've come undone (It's a message to the world)

When you kill me, please do it slowly
Send a message to the world (A message to the world)
Send a message to the world (A message to the world)
Send a message to the world

Another world collides, will we open the door
            
Submit corrections


        Message To The World lessons Hard to play? Try these video lessons and learn fast Message To The World lessons
        
↑ Back to top | Tablatures and chords for acoustic guitar and electric guitar, ukulele, drums are parodies/interpretations of the original songs. You may use it for private study, scholarship, research or language learning purposes only