» » »

Story Of The Year - Meathead Tabs

Artists:  A B C D E F G H I J K L M N O P Q R S T U V W X Y Z # 

Meathead Tabs

(ver. 1) Click to play this song!
Story Of The Year
 Rating:
4/5 (4 votes)

 Meathead lessons Tabs too difficult? Try these video lessons and learn fast
 
                			     Story Of The Year - Meathead

Tuning: Drop D

				Intro

e|---------------------------------------------------------------------------|
B|-----------------------------6>--------------------------------------------|
G|-----------------------------5>--------------------------------------------|
D|---3>------------------------3>--------------------------------------------|
A|---3>------------------------3>--------------------------------------------|
D|---3>------------------------3>-----------------------------------|

				Verse

e|---------------------------------------------------------------------------|
B|---------------------------------------------------------------------------|
G|---------------------------------------------------------------------------|
D|--3-3-3-10-10-10--3-3-3-6-6-6-1-1-1-1-1-1-6-6-6-3-3-3----------------------|
A|--3-3-3-8--8--8---3-3-3-6-6-6-1-1-1-1-1-1-4-4-4-1-1-1----------------------|
D|--3-3-3-----------3-3-3-6-6-6-1-1-1-1-1-1----------------------------------|
						  

e|---------------------------------------------------------------------------|
B|---------------------------------------------------------------------------|
G|---------------------------------------------------------------------------|
D|--3-3-3-10-10-10-3-3-3-5-5-5-6-6-6-6-6-6-6--6-6-6-1------------------------|
A|--3-3-3-8--8--8--3-3-3-6-6-6-6-6-6-6-6-6-6--6-6-6-1------------------------|
D|--3-3-3----------3-3-3-5-5-5-6-6-6-6-6-6-6--6-6-6-1------------------------|
				     . . . .
e|---------------------------------------------------------------------------|
B|---------------------------------------------------------------------------|
G|---------------------------------------------------------------------------|
D|--3-3-3-10-10-10--3-3-3-6-6-6-1-1-1-1-1-1-6-6-6-3-3-3----------------------|
A|--3-3-3-8--8--8---3-3-3-6-6-6-1-1-1-1-1-1-4-4-4-1-1-1----------------------|
D|--3-3-3-----------3-3-3-6-6-6-1-1-1-1-1-1----------------------------------|

e|---------------------------------------------------------------------------|
B|---------------------------------------------------------------------------|
G|---------------------------------------------------------------------------|
D|--3-3-3-10-10-10-3-3-3-5-5-5-6-6-6-6-6-6-6--6-6-6-1------------------------|
A|--3-3-3-8--8--8--3-3-3-3-3-3-6-6-6-6-6-6-6--6-6-6-1------------------------|
D|--3-3-3----------3-3-3-------6-6-6-6-6-6-6--6-6-6-1------------------------|
				     . . . .

				Chorous


e|---------------------------------------------------------------------------|
B|---------------------------------------------------------------------------|
G|---5-5-5-5-5-5-6-6-6-6-6-6---10-10-10-13--13--13--12--12--12---------------|
D|---6-6-6-6-6-6-6-6-6-6-6-6---x--x--x---x---x---x---x---x---x---------------|
A|---3-3-3-3-3-3-4-4-4-4-4-4---8--8--8--11--11--11--10--10--10---------------|
D|---------------------------------------------------------------------------|

e|---------------------------------------------------------------------------|
B|---------------------------------------------------------------------------|
G|---5-5-5-5-5-5-6-6-6-6-6-6---10-10-10-13--13--13--15--15--15---------------|
D|---6-6-6-6-6-6-6-6-6-6-6-6---x--x--x---x---x---x---x---x---x---------------|
A|---3-3-3-3-3-3-4-4-4-4-4-4---8--8--8--11--11--11--13--13--13---------------|
D|---------------------------------------------------------------------------|

e|--------4-----4---4-----4-----4---4----------------------------------------|
B|--------4-----4---4-----4-----4---4----------------------------------------|
G|---------------------------------------------------------------------------|
D|---------------------------------------------------------------------------|
A|---3-3----3-3---3---4-4---4-4---4------------------------------------------|
D|---------------------------------------------------------------------------|
     . .    . .   .   . .   . .   .


e|---------------------------------------------------------------------------|
B|---------------------------------------------------------------------------|
G|--10-10-10-13--13--13--12--12--12---5-5-5-5-5-5-6-6-6-6-6-6----------------|
D|--x--x--x---x---x---x---x---x---x---6-6-6-6-6-6-6-6-6-6-6-6----------------|
A|--8--8--8--11--11--11--10--10--10---3-3-3-3-3-3-4-4-4-4-4-4----------------|
D|---------------------------------------------------------------------------|

e|---------------------------------------------------------------------------|
B|---------------------------------------------------------------------------|
G|---------------------------------------------------------------------------|
D|---6-1---/-3-3-3-6-6-6-1-1-1-6-1-\-------------------3>--------------------|
A|---6-1---|-3-3-3-6-6-6-1-1-1-6-1-|-repeat x 4 then:--3>--------------------|
D|---6-1---\-3-3-3-6-6-6-1-1-1-6-1-/-------------------3>--------------------|

				Outro

(clean at first then distortion kicks in)

e|---------------------------------------------------------------------------|
B|---------------------------------------------------------------------------|
G|---------------------------------------------------------------------------|
D|--3-3-x-x-6-6-x-x-1-1-x-x-5-5-x-x-6-x-x-1-x-x------------------------------|
A|--3-3-x-x-6-6-x-x-1-1-x-x-6-6-x-x-6-x-x-1-x-x------------------------------|
D|--3-3-x-x-6-6-x-x-1-1-x-x-5-5-x-x-6-x-x-1-x-x------------------------------|

e|---------------------------------------------------------------------------|
B|---------------------------------------------------------------------------|
G|---------------------------------------------------------------------------|
D|--3-3-x-x-6-6-x-x-6-6-x-x-1-1-x-x-6-x-x-1-x-x-------------------------3----|
A|--3-3-x-x-3-3-x-x-4-4-x-x-1-1-x-x-6-x-x-1-x-x--Repeat until the end---3----|
D|--3-3---------------------1-1-x-x-6-x-x-1-x-x---------then hold-------3----|


| #   hold strings
| >   continuous strumming
|p.m  palm mute
| /   slide up
| \   slide down
| h   hammer-on
| p   pull-off
| ~   vibrato
| +   harmonic
| x   Mute note

that tabs for you ste, have fun my fellow soty loving friend! bring on april
12th in manchester!!!
            
Submit corrections


        Meathead lessons Hard to play? Try these video lessons and learn fast Meathead lessons
        
↑ Back to top | Tablatures and chords for acoustic guitar and electric guitar, ukulele, drums are parodies/interpretations of the original songs. You may use it for private study, scholarship, research or language learning purposes only