Home » S » Story Of The Year »

Story Of The Year - Dive Right In Bass

Artists:  A B C D E F G H I J K L M N O P Q R S T U V W X Y Z # 

Dive Right In Bass

(ver. 1) Click to play this song!
Story Of The Year
 Rating:
4.2/5 (5 votes)
                Tuning is dropped D, E D A D, you could alsop play it in Eb Db Ab Db (if your playing 
with other guitars its actually better to play it in Eb Db Ab Db, because the 
guitars will probably be tuned like that)


Intro is just guitar

Chorus
E|----------------------------------------------------------------------------|
D|----------------------------------------------------------------------------|
A|-------------------------------------------8-8-8-8/-7-7-\-8-8---9-9-9-9-9-9-| 
D|-0-0-0-0-0-0--8-8-8--0-0-0-0-0-0--8-8-8-------------------------------------|x2



Verse
E|-------------------------------------------------------|
D|-------------------------------------------------------|
A|-------------------------------------------------------|Listen to song for 
D|-0-0-0-----0-0---0-0-0-0---0-0-0-0---0--0---0--0\12/0--|timing




Prechorus
E|-----------------------------------------------------------------------------------|
D|-----------------------------------------------------------------------------------|
A|-----------------------------------------------------------------------------------|
D|-0000000000000000--8-8888888888888888-10101010101010101010101010101010-77777777-8~-|



Chorus
E|----------------------------------------------------------------------------|
D|----------------------------------------------------------------------------|
A|-------------------------------------------8-8-8-8/-7-7-\-8-8---9-9-9-9-9-9-| 
D|-0-0-0-0-0-0--8-8-8--0-0-0-0-0-0--8-8-8-------------------------------------|x2



Verse
E|-------------------------------------------------------|
D|-------------------------------------------------------|
A|-------------------------------------------------------|Listen to song for   
D|-0-0-0-----0-0---0-0-0-0---0-0-0-0---0--0---0--0\12/0--|timing



Prechorus
E|-----------------------------------------------------------------------------------|
D|-----------------------------------------------------------------------------------|
A|-----------------------------------------------------------------------------------|
D|-0000000000000000--8-8888888888888888-10101010101010101010101010101010-77777777-8~-|


Chorus
E|----------------------------------------------------------------------------|
D|----------------------------------------------------------------------------|
A|-------------------------------------------8-8-8-8/-7-7-\-8-8---9-9-9-9-9-9-| 
D|-0-0-0-0-0-0--8-8-8--0-0-0-0-0-0--8-8-8-------------------------------------|x4

Bridge
E|---------------------------------------------|
D|---------------------------------------------|
A|---------------------------------------------|
D||-0~-0-3-3-0-1-000-------000-------888888-8--|

E|-------------------------------------------------|
D|-------------------------------------------------|
A|-------------------------------------------------|
D|3-3-0-1-000------000-------000-00000-0-3-3-0-1-0-|




E|-------------------------------------------------------------|
D|-------------------------------------------------------------|
A|-------------------------------------------------------------|
D|--0--8\10101010101010101010101010101010101010101010101010\0--|

Chorus
E|----------------------------------------------------------------------------|
D|----------------------------------------------------------------------------|
A|-------------------------------------------8-8-8-8/-7-7-\-8-8---9-9-9-9-9-9-| 
D|-0-0-0-0-0-0--8-8-8--0-0-0-0-0-0--8-8-8-------------------------------------|x4

End Part
E|---------------------------|
D|---------------------------|
A|---------------------------|
D|-0~----8~----10~----7~--8~-|

Last part is just guitar
            
Submit corrections

↑ Back to top | Tablatures and chords for acoustic guitar and electric guitar, ukulele, drums are parodies/interpretations of the original songs. You may use it for private study, scholarship, research or language learning purposes only