» » »

Story Of The Year - Choose Your Fate Tabs

Artists:  A B C D E F G H I J K L M N O P Q R S T U V W X Y Z # 

Choose Your Fate Tabs

(ver. 1) Click to play this song!
Story Of The Year
 Rating:
4/5 (6 votes)

 Choose Your Fate lessons Tabs too difficult? Try these video lessons and learn fast
 
                


-------------------------------------------------------------------------------
-------------------------------------------------------------------------------

Tuning: Drop C (CGCFAd)

Okay, I'm tabbing this song because it's a pretty cool song. Only my third 
Please comment and rate :)

NOTE THAT THE SONG IS NOT IN ORDER,YOU HAVE TO FIGURE IT OUT YOURSELF

I know there are a lot of mistakes, but I'll go back and fix them some other time.

Riff 1
e|-----------------------------------------------------------|
B|-----------------------------------------------------------|
G|-----------------------------------------------------------|
D|-----------------------------------------------------------|
A|-3-2-2-2-2-2-3-2-2-2-2-2-3-2-2-2-2-2-3-2-2-2-2-2-3-2-2-2-2-|
E|-3-2-2-2-2-2-3-2-2-2-2-2-3-2-2-2-2-2-3-2-2-2-2-2-3-2-2-2-2-|
       . . .       . . .       . . .       . . .       . . .

e|-------------------------|---------------|\
B|-------------------------|---------------| \
G|-------------------------|---------------|  \I can't hear this part
D|-------------------------|---------------|  / but it sounds close
A|-2-3-2-2-2-2-2-3-2-2-2-2-|-5--5-5--2--2-2| /  enough.
E|-2-3-2-2-2-2-2-3-2-2-2-2-|---------------|/ 
         . . .       . . .

Riff 2
e|----|-------xxxxx-|\
B|----|-------xxxxx-| \   Some sort of effect (I don't know what it is.)
G|----|-------xxxxx-|  \
D|----|-14----xxxxx-|  /  7X
A|-14-|----14-xxxxx-| /
E|----|-------xxxxx-|/

Riff 3
e|-----------------|
B|-----------------|
G|-----------------|
D|-----------------|
A|-5-5-5-5-10-10-9-|
E|-5-5-5-5-10-10-9-|

Riff 4 
e|-----------|     |--------------|\
B|-----------|     |--------------| \
G|-----------| OR  |--------------|  \ 8X
D|-2-0-2-3-2-|     |-9-7-9-10-9-7-|  /
A|-----------|     |-7-5-7-8--7-5-| /
E|-2-0-2-3-2-|     |--------------|/

Riff 5
e|---|     |---|     |---|     |---|     \
B|---|     |---|     |---|     |---|      \
G|---|     |---|     |---|     |---|       \ 2X
D|-9-|     |-7-|     |-5-|     |-4-|       /
A|-7-|     |-5-|     |-3-|     |-2-|      /
E|---| 16X |---| 16X |---| 16X |---| 16X /

Riff 6
e|--------------|
B|--------------|
G|--------------|
D|-4-4-5--4-4-5-| Let ring second time.
A|-2-2-3--2-2-3-|
E|--------------|

Riff 7
e|--------------------------------------------|
B|--------------------------------------------|
G|--------------------------------------------|
D|--------------------------------------------|
A|-2-2-2-2h3--2-2-2-5p3--2-2-2-2h3--2-2-2-----|
E|-2-2-2-2h3--2-2-2-5p3--2-2-2-2h3--2-2-2-[3]-|
   . . .      . . .      . . .      . . .

e|-----------------------------------------------|
B|-----------------------------------------------|
G|----------------------------------9-12---------|
D|-----------------------------------------------|
A|-2-2-2-2h3--2-2-2-5p3--2-2-2-2h3--7-10---------|
E|-2-2-2-2h3--2-2-2-5p3--2-2-2-2h3-------5-4-3-5-|
   . . .      . . .      . . .      

Riff 8
e|------------------------|\
B|------------------------| \
G|-4-4/12--5-5/12--5-7/12-|  \ 3X
D|------------------------|  /
A|-2-2/10--3-3/10--5-5/10-| /
E|------------------------|/

Riff 9
e|-------------|
B|-------------|
G|-------------|
D|-------------|
A|-2-2--2-2--2-|
E|-2-2--2-2--2-|

Riff 10
e|-------------|\
B|-------------| \
G|-------------|  \ 4X
D|-------------|  /
A|-2--2--2-3-3-| /
E|-2--2--2-3-3-|/

Riff 11
e|-------|
B|-------|
G|-------|
D|-5---4-|
A|-3-2-2-|
E|---2---|

Lyrics:

[Spoken]
Have you ever given any thought to the fate of your children? 
We've made good progress
[Scrambled words]
Slowly but surely achieving our objective

LIAR!!! 
Slip from the tongue
With the breath of a prophet
Call to die
Kiss with a bomb

In a home that's broken and silent 
The truth will not be heard
In the forceful world of a tyrant
Freedom is a loaded word

Compliance! 
It's more than code
It's a contest of fate for
The corrupt
What power is love
Finally chance widely smiled upon

In a place where God is abandoned
Freedom can become a curse

YEAH BEGGAR!!! 
Choose your fate! 
The reaction! 
The reaction is awake! 
So choose your fate! 
The reaction! 
The reaction is awake! 

Cuz when the meaning fails to be objectified
Lies will carry through
Until you see them staring from the other side
Back at you
Back at you

YOU!!! 
YOU!!!!! 

Now they were trying to sell you

Yeah
When the meaning fails to be objectified 
(To be objectified)
Then your lies will stare back at you from the other side
(From the other side)

BEGGAR!!! 
Choose your fate! 
The reaction! 
The reaction is awake! 
So choose your fate! 
The reaction! 
The reaction is awake! 

Yeah! 
Awake! 
Yeah! 
Awake! 

Choose your, own fate! 
Already! 
The reaction is awake! 

YEAH!!!!!!!!! 

LIAR!!! 
LIAR!!! 
LIAR!!! 
LIAR!!! 



| /  slide up
| \  slide down
| h  hammer-on
| p  pull-off
| ~  vibrato
| [ ] pinch harmonic
| x  Mute note
| . palm-mute
===============================================================================
            
Submit corrections


        Choose Your Fate lessons Hard to play? Try these video lessons and learn fast Choose Your Fate lessons
        
↑ Back to top | Tablatures and chords for acoustic guitar and electric guitar, ukulele, drums are parodies/interpretations of the original songs. You may use it for private study, scholarship, research or language learning purposes only