» » »

Story Of The Year - Antidote Bass

Artists:  A B C D E F G H I J K L M N O P Q R S T U V W X Y Z # 

Antidote Bass

(ver. 1) Click to play this song!
Story Of The Year
 Rating:
4.2/5 (5 votes)

 Antidote lessons Tabs too difficult? Try these video lessons and learn fast
 
                Tuning: Drop Db (Db,Ab,Db,Gb)

Here it is...

-Intro 1-                         (palm mute a little)
Gb|---------------------------------------------------|
Db|---------------------------------------------------|
Ab|---------------------------------------------------|
Db|-4444444444-000000-222222-4444444444-000000-222222-|

Gb|---------------------------------------------------|
Db|---------------------------------------------------|
Ab|---------------------------------------------------|
Db|-4444444444-000000-222222-4444444444-000000-222222-|

Gb|---------------------------------------------------------------------|
Db|---------------------------------------------------------------------|
Ab|---------------------------------------------------------------------|
Db|-4-4-42~-4~-4-42~-4-4-42~-4~-4-42~-4-4-42~-4~-4-42~-4-4-42~-4~-4-42~-|

-Verse 1-
Gb|-----------------------------------------|
Db|-----------------------------------------|
Ab|-----------------------------------------|
Db|-4~--42~-4~--42~-4~-42~--4~-7422-4~-7422-|

Gb|----------------------------------------------------------|
Db|----------------------------------------------------------|
Ab|----------------------------------------------------------|
Db|-4~--42~-4~--42~-4~-42~--4~-7~-4444444444-7777777-222222--|

-Chorus 1-
Gb|-------------------------------------------------------|
Db|-------------------------------------------------------|
Ab|-------------------------------------------------------|
Db|-4~44444444-0~00000-2~22222-4~44444444-0~00000-2~22222-|

-Verse 2/Intro 2-
Gb|---------------------------------------------------------------------|
Db|---------------------------------------------------------------------|
Ab|---------------------------------------------------------------------|
Db|-4-4-42~-4~-4-42~-4-4-42~-4~-4-42~-4-4-42~-4~-4-42~-4-4-42~-4~-4-42~-|

Gb|----------------------------------------------------------|
Db|----------------------------------------------------------|
Ab|----------------------------------------------------------|
Db|-4~--42~-4~--42~-4~-42~--4~-7~-4444444444-7777777-222222--|

-Chorus 2-
Gb|-------------------------------------------------------|
Db|-------------------------------------------------------|
Ab|-------------------------------------------------------|
Db|-4~44444444-0~00000-2~22222-4~44444444-0~00000-2~22222-|

Gb|--------------------------------------------------------------|
Db|--------------------------------------------------------------|
Ab|---------------------------------------5~555555555-7~77777777-|
Db|-4~44444444-0~00000-2~22222-4~44444444------------------------|

-Intro 3-
Gb|---------------------------------------------------------------------|
Db|---------------------------------------------------------------------|
Ab|---------------------------------------------------------------------|
Db|-4-4-42~-4~-4-42~-4-4-42~-4~-4-42~-4-4-42~-4~-4-42~-4-4-42~-4~-4-42~-|

-Bridge 1-
Gb|-------------------------------------------|
Db|--------------------------------4~6~7~~6~4-|
Ab|--------/12~12~12~~12\--------57-----------|
Db|-7~7~7~~---------------4~4~4~~-------------|

Gb|-------------14~-----------------------------|
Db|----------------14~---------------4~6~7~~6~4-|
Ab|--------/(12)------12~~\--------57-----------|
Db|-7~7~7~~-----------------4~4~4~~-------------|

Gb|---------------------------------------------------------|
Db|---------------------------------------------------------|
Ab|---------------------------------------------------------|
Db|-7~777~777~777-8~888~888~888-7~777~777~777-8~888~888~888-|

-Solo 1-
Gb|----------------------------------------------------------------|
Db|----------------------------------------------------------------|
Ab|-------------------------------------------5~5555555-7~7777777--|
Db|-4~44444444-2~22-4~44444444-2~22-4~44444444---------------------|

Gb|--------------------------------------|
Db|--------------------------------------|
Ab|--------------------------------------|
Db|-4444444444-4444444444-0000000-4~-2~~-|

Gb|----------------------------------------------------------------------------------|
Db|----------------------------------------------------------------------------------|
Ab|----------------------------------------------------------------------------------|
Db|-4444~44~4642~-4444~44~4642~-0000~00~0420~-2~222222222222/14~14141414141414141414-|

Gb|------------------------------------------|
Db|------------------------------------------|
Ab|------------------------5~5555555-7~77777-|
Db|-4~4----42~44~444444444-------------------|

-Chorus 3-
Gb|-------------------------------------------------------|
Db|-------------------------------------------------------|
Ab|-------------------------------------------------------|
Db|-4~44444444-0~00000-2~22222-4~44444444-0~00000-2~22222-|

Gb|--------------------------------------------------------|
Db|--------------------------------------------------------|
Ab|---------------------------------------5~555555-7~77777-|
Db|-4~44444444-0~00000-2~22222-4~44444444------------------|

Gb|---------------------------------------------------------|
Db|---------------------------------------------------------|
Ab|---------------------------------------------------------|
Db|-4~44444444-0~00000-2~22222-4~44444444-0~00000-2~2~-2~2~-|

Gb|-----------------------------------------------------------|
Db|-----------------------------------------------------------|
Ab|---------------------------------------5~55555555-7~777777-|
Db|-4~44444444-0~00000-2~2-2-2-4~44444444---------------------|

-Outro 1/Intro 4-
Gb|---------------------------------------------------------------------|
Db|---------------------------------------------------------------------|
Ab|---------------------------------------------------------------------|
Db|-4-4-42~-4~-4-42~-4-4-42~-4~-4-42~-4-4-42~-4~-4-42~-4-4-42~-4~-4-42~-|

-End-
Gb|------|
Db|------|
Ab|------|
Db|-4~\--|

Should be 100% correct.
            
Submit corrections


        Antidote lessons Hard to play? Try these video lessons and learn fast Antidote lessons
        
↑ Back to top | Tablatures and chords for acoustic guitar and electric guitar, ukulele, drums are parodies/interpretations of the original songs. You may use it for private study, scholarship, research or language learning purposes only