» » »

Stone Sour - Sillyworld Bass

Artists:  A B C D E F G H I J K L M N O P Q R S T U V W X Y Z # 

Sillyworld Bass

(ver. 1) Click to play this song!
Stone Sour
 Rating:
4/5 (4 votes)


 Sillyworld lessons Tabs too difficult? Try these video lessons and learn fast
 
                ----------------------------------------------------------------------------
			     Sillyworld-Stone Sour
----------------------------------------------------------------------------


Tuning: BEAD

No bass in intro
Bass comes in at 00:25

This is my second tab. It may be a little off cos im new.

(00:25)Verse Pt.1 x4
D|-------------------------------|
A|-------------------------------|  I think This Is Right
E|-------------------------------|
B|-3~--3-3/12~-----3~--12-12\3~--|

(00:44)Verse Pt.2
D|-------------|
A|-------------|
E|-------------|
B|-3~~-1~~--33-|

(00:51)Verse Pt.1 x4
(01:09)Verse Pt.2

(01:17)Chorus x2
D|----------------------------------------------|
A|----------------------------------------------|
E|----------------55555555-33333333-1-3-5-------|
B|-33333333-56789-------------------------3-----|

(01:41)Post Chorus 1
D|---------------------------------|
A|---------------------------------|
E|---------------------------------|
B|-8-10-8-10-8-8-10-8-10-8-10-8-10-|

D|------------------------|
A|------------------------|
E|------------------------|
B|6-8-6-8-6-6-8-6-8-6-8-6-|

D|------------------------|
A|------------------------|
E|------------------------|
B|3-5-3-5-3-3-5-3-5-3-5-3-|

D|-----------------------|
A|-----------------------|
E|-----------------------|
B|-11111-11111-11111-111-|

(01:54)Verse Pt.1 x3
(02:12)Verse Pt.2

(02:20)Chorus x2

(2:43)Post Chorus 2 x4
D|-------------------------------------|
A|-------------------------------------|
E|-------------------------------------|
B|-77777777-55555555-33333333-11111111-|

Play Post-Chorus twice during solo

Its probably wrong cos ive only been playing it like this for a couple of days. Any 
for improvement please e-mail me.

| /  slide up
| \  slide down
| h  hammer-on
| p  pull-off
| ~  vibrato
| +  harmonic
| x  Mute note
============================
            
Submit corrections



        Sillyworld lessons Hard to play? Try these video lessons and learn fast Sillyworld lessons
        
↑ Back to top | Tablatures and chords for acoustic guitar and electric guitar, ukulele, drums are parodies/interpretations of the original songs. You may use it for private study, scholarship, research or language learning purposes only