» » »

Stone Sour - Say Youll Haunt Me Bass

Artists:  A B C D E F G H I J K L M N O P Q R S T U V W X Y Z # 

Say Youll Haunt Me Bass

(ver. 2) Click to play this song!
Stone Sour
 Rating:
4/5 (4 votes)


 Say Youll Haunt Me lessons Tabs too difficult? Try these video lessons and learn fast
 
                Say You'll Haunt me
Stone Sour
Audio Secrecy


Standard tuning 
(even though the song is recorded and performed in Drop B this works)

Intro

G|------------------|------------------|------------------|------------------|
D|-9---~---~----~---|-7--~----~---~----|-6---~---~----~---|------------------|
A|------------------|------------------|------------------|-2---~---~---~----|
E|------------------|------------------|------------------|------------------|

 |-1 & 2 & 3 & 4 & -|-1 & 2 & 3 & 4 & -|-1 & 2 & 3 & 4 & -|-1 & 2 & 3 & 4 & -|

Verse (X 4)

G|------------------|------------------|------------------|------------------|
D|-4-----2---4---5--|-~-----5---7-5-4--|-5-------------2--|-~-0--------------|
A|-----2------------|---2--------------|-----2-0---2------|-------4---0---2--|
E|------------------|------------------|------------------|------------------|

 |-1 & 2 & 3 & 4 & -|-1 & 2 & 3 & 4 & -|-1 & 2 & 3 & 4 & -|-1 & 2 & 3 & 4 & -|

Pre chorus (Build up)

G|------------------|------------------|------------------|------------------|
D|------------------|------------------|------------------|------------------|
A|-2-2-2-2-2-2-2-2--|-2-2-2-2-2-0-0-0--|-2-2-2-2-2-2-2-2--|-2-2-2-2-2-2-2-2--|
E|------------------|------------------|------------------|------------------|

 |-1 & 2 & 3 & 4 & -|-1 & 2 & 3 & 4 & -|-1 & 2 & 3 & 4 & -|-1 & 2 & 3 & 4 & -|

Chorus (X 2)

G|------------------|------------------|------------------|------------------|
D|------------------|------------------|------------------|------------------|
A|-2-2-2-2-2-0-0-5--|-~-5-5-5-5-7-5-7--|-0-0-0-0-0---4-2--|-~-2-2-2-2-0-0-0--|
E|------------------|------------------|-----------3------|------------------|

 |-1 & 2 & 3 & 4 & -|-1 & 2 & 3 & 4 & -|-1 & 2 & 3 & 4 & -|-1 & 2 & 3 & 4 & -|

Post Chorus riff

G|------------------|------------------|------------------|------------------|
D|------------------|---------------2--|-4-5-~-5-4-5-4----|-5---4---2--------|
A|-2-2-x-0-2-2-x-5--|-X-2-X-0-2-2-x----|---------------5--|-------------5-4--|
E|------------------|------------------|------------------|------------------|

 |-1 & 2 & 3 & 4 & -|-1 & 2 & 3 & 4 & -|-1 & 2 & 3 & 4 & -|-1 & 2 & 3 & 4 & -|

  The muted notes -x- can be played as a palm muted low E's on the bottom string

Play Verse (X 4), Prechorus, Chorus (X 4) and Post chorus (X 2)

Pre solo riff (X 2)

G|------------------|------------------|------------------|------------------|
D|------------------|------------------|------------------|------------------|
A|-2-2-2-0-2-2-x-5--|-X-2-X-0-2-2-x-0--|-2-2-2-0-2-2-x-5--|-x-4-X-5-x-4-x-0--|
E|------------------|------------------|------------------|------------------|

 |-1 & 2 & 3 & 4 & -|-1 & 2 & 3 & 4 & -|-1 & 2 & 3 & 4 & -|-1 & 2 & 3 & 4 & -|

Play Solo (Verse X 4), Verse (X 1 and a half), Pre chorus (X 4), Chorus (X 4), Pre solo riff (X 2)

Then

G|------------------|
D|------------------|
A|-2-2-2-0-2\X------|
E|------------------|

 |-1 & 2 & 3 & 4 & -|

And done! Enjoy playing, this song is quite heavy on the bass and really good fun to play.

| /  slide up
| \  slide down
| h  hammer-on
| p  pull-off
| ~  vibrato
| +  harmonic
| x  Mute note
===============================================================================
            
Submit corrections



        Say Youll Haunt Me lessons Hard to play? Try these video lessons and learn fast Say Youll Haunt Me lessons
        
↑ Back to top | Tablatures and chords for acoustic guitar and electric guitar, ukulele, drums are parodies/interpretations of the original songs. You may use it for private study, scholarship, research or language learning purposes only