» » »

Stone Sour - Reborn Bass

Artists:  A B C D E F G H I J K L M N O P Q R S T U V W X Y Z # 

Reborn Bass

(ver. 1) Click to play this song!
Stone Sour
 Rating:
4/5 (4 votes)


 Reborn lessons Tabs too difficult? Try these video lessons and learn fast
 
                intro
-------------------------------------------------------------------|
-------------------------------------------------------------------|
-------------------------------------------------------------------|
-2-2-2-2-2-2-10-9-10-2-2-2-2-2-2-5~--8-----------------------------|

-------------------------------------------------------------------|
-------------------------------------------------------------------|
-------------------------------------------------------------------|
-2-2-2-2-2-2-10-9-10-5-5-5-8-8-8-7-7-7-----------------------------|

(no Bass In Verse)

pre-chorus
------------------------------------------------------------------------|
------------------------------------------------------------------------|
------------------------------------------------------------------------|
-9-9-9-9-10-9-8-9-9-9-9-9-9-13-12-10-9-9-9-9-10-9-8-9-9-9-9-9-9-9-10-11-|

----------------------------------------------------------------------|
----------------------------------------------------------------------|
----------------------------------------------------------------------|
-9-9-9-9-10-9-8-9-9-9-9-9-9-13-12-10-9-9-9-9-10-9-8-9-9-9-9-9-9-9-9-9-|

chorus
-------------------------------------------------------------------|
-------------------------------------------------------------------|
-------------------------------------------------------------------|
-2-3-2------2-3-2------2-3-2--14-12-10-9-10-9-7-9------------------|
            
Submit corrections



        Reborn lessons Hard to play? Try these video lessons and learn fast Reborn lessons
        
↑ Back to top | Tablatures and chords for acoustic guitar and electric guitar, ukulele, drums are parodies/interpretations of the original songs. You may use it for private study, scholarship, research or language learning purposes only