Home » S » Stone Sour »

Stone Sour - 3030-150 3 Tabs

Artists:  A B C D E F G H I J K L M N O P Q R S T U V W X Y Z # 

3030-150 3 Tabs

(ver. 1) Click to play this song!
Stone Sour
Stone Sour - 30\30-150 - Come What(ever) May

Tuning : 7 String Tuned Low to High (B E A D G b e)

Intro:
|----------------|---------------|
|----------------|---------------|
|----------------|---------------|
|----------------|---------------|
|----------------|---------------|
|-22-2-2--2-2-22-|-22-2-2--2-2-2-|
|-00-0-0--0-0-00-|-00-0-0--0-0-0-|
  .. . .  . . ..   .. . .  . . .   .palm mute

Pre-Verse:
|---------------------------------|
|---------------------------------|
|---------------------------------|
|---------------------------------|	(Guitar1)
|-----9---------------------------|
|-7788-8877----10108810108877-----|
|----------0000--------------0000-|

|-----------------------------|
|-----------------------------|
|-----------------------------|
|-----------------------------|	(Guitar2)
|-----9-----------------------|
|-7788-8877-------------------|
|----------0000331133110-0000-|

Verse:
|-------------------|-------------------|-------------------|-------------------|
|-------------------|-------------------|-------------------|-------------------|
|-------------------|-------------------|-------------------|-------------------|
|-------------------|-------------------|-------------------|-------------------|
|-------------------|-------------------|-------------------|-------------------|
|-2-2-22-22-22------|-2-2-22-22-22------|-2-2-22-22-22------|-2-2-22-22-22------|
|-0-0-00-00-0010013-|-0-0-00-00-0010035-|-0-0-00-00-0010013-|-0-0-00-00-0010035-|
  . . .. .. .......   . . .. .. .......   . . .. .. .......   . . .. .. .......   .palm mute

|-------------------|-------------------|-------------------|-------------------|
|-------------------|-------------------|-------------------|-------------------|
|-------------------|-------------------|-------------------|-------------------|
|-------------------|-------------------|-------------------|-------------------|
|-------------------|-------------------|-------------------|-------------------|
|-7-7-77-77-77------|-7-7-77-77-77------|-2-2-22-22-22------|-2-2-22-22-22------|
|-5-5-55-55-5565568-|-5-5-55-55-5565563-|-0-0-00-00-0010013-|-0-0-00-00-0010035-|
  . . .. .. .......   . . .. .. .......   . . .. .. .......   . . .. .. .......   .palm mute

Pre-Chorus:
|--------------------------|
|--------------------------|
|--------------------------|
|--------------------------|
|--------------------------|
|--------8-----8--8----5/7-|
|-66566506-00-06-06-00-3/5-|
  .......  .. .  .  ..      .palm mute

Chorus:
|--------------------------|
|--------------------------|
|--------------------------|
|----9~-7-----------7~-10~-|
|----9~-7-5~--7-7~~-7~-10~-|
|----7~-5-5~--7-7~~-5~- 8~-|
|-00-0~---3~--5-5~~--------|

Fill1:
|--------------------------------|
|--------------------------------|
|--------------------------------|
|------------------141414/171717-|	(Guitar2)
|------------------xxxxxxxxxxxxx-|
|-10~-9-10~-7-7~~--121212/151515-|
|--------------------------------|

Pre-Verse:
|-----------------------------|
|-----------------------------|
|-----------------------------|
|-----------------------------|	(Guitar2)
|-----9-----------------------|
|-7788-8877-------------------|
|----------0000331133110-0000-|

Pre-Verse:
|---------------------------------|
|---------------------------------|
|---------------------------------|
|---------------------------------|	(Guitar1)
|-----9---------------------------|
|-7788-8877----10108810108877-----|
|----------0000--------------0000-|

|-----------------------------|
|-----------------------------|
|-----------------------------|
|-----------------------------|	(Guitar2)
|-----9-----------------------|
|-7788-8877-------------------|
|----------0000331133110-0000-|

Verse:
|-------------------|-------------------|-------------------|-------------------|
|-------------------|-------------------|-------------------|-------------------|
|-------------------|-------------------|-------------------|-------------------|
|-------------------|-------------------|-------------------|-------------------|
|-------------------|-------------------|-------------------|-------------------|
|-2-2-22-22-22------|-2-2-22-22-22------|-2-2-22-22-22------|-2-2-22-22-22------|
|-0-0-00-00-0010013-|-0-0-00-00-0010035-|-0-0-00-00-0010013-|-0-0-00-00-0010035-|
  . . .. .. .......   . . .. .. .......   . . .. .. .......   . . .. .. .......   .palm mute

|-------------------|-------------------|-------------------|-------------------|
|-------------------|-------------------|-------------------|-------------------|
|-------------------|-------------------|-------------------|-------------------|
|-------------------|-------------------|-------------------|-------------------|
|-------------------|-------------------|-------------------|-------------------|
|-7-7-77-77-77------|-7-7-77-77-77------|-2-2-22-22-22------|-2-2-22-22-22------|
|-5-5-55-55-5565568-|-5-5-55-55-5565563-|-0-0-00-00-0010013-|-0-0-00-00-0010035-|
  . . .. .. .......   . . .. .. .......   . . .. .. .......   . . .. .. .......   .palm mute

Chorus:
|--------------------------|
|--------------------------|
|--------------------------|
|----9~-7-----------7~-10~-|
|----9~-7-5~--7-7~~-7~-10~-|
|----7~-5-5~--7-7~~-5~- 8~-|
|-00-0~---3~--5-5~~--------|

Fill1:
|--------------------------------|
|--------------------------------|
|--------------------------------|
|------------------141414/171717-|	(Guitar2)
|------------------xxxxxxxxxxxxx-|
|-10~-9-10~-7-7~~--121212/151515-|
|--------------------------------|

Bridge1:
|----------------|
|----------------|
|----------------|
|----------------|
|----------------|
|-22-2-2--2-2-22-|
|-00-0-0--0-0-00-|
  .. . .  . . ..  .palm mute

Bridge2:
|------------------------|------------------------|
|------------------------|------------------------|
|------------------------|------------------------|
|------------------------|------------------------|	(Guitar1)
|------------------------|------------------------|
|-2~-23~-35~-57~-78~-10~-|-2~-23~-35~-57~-78~-10~-|
|-0~-01~-13~-35~-56~- 8~-|-0~-01~-13~-35~-56~- 8~-|

|------------------------|------------------------------------------|
|------------------------|------------------------------------------|
|------------------------|------------------------------------------|
|-4~-45~-57~-79~-910~-12~|-4~-45~-4540~-454~-4540~-7999999101010-12-|	(Guitar2)
|-x--xx--xx--xx--xxx--xx-|-x--xx-------------------xxxxxxxxxxxxx-xx-|
|-2~-23~-35~-57~-7 8~-10~|-2~-23~------------------5777777 8 8 8-10-|
|------------------------|------------------------------------------|

Bridge3:
|-----------------------------|
|-----------------------------|
|-----------------------------|
|-----------------------------|
|-----------------------------|
|---7-5-7---7-8---7-5-7---3-2-|
|-0-------0-----0-------0-----|

Fill2:
|-----------------------------|
|-----------------------------|
|-----------------------------|
|-----------------------------|
|---9-7-9---9-10---9-7-9---5-4|
|-----------------------------|
|-0-------0------0-------0----|

Verse:
|-------------------|-------------------|-------------------|-------------------|
|-------------------|-------------------|-------------------|-------------------|
|-------------------|-------------------|-------------------|-------------------|
|-------------------|-------------------|-------------------|-------------------|
|-------------------|-------------------|-------------------|-------------------|
|-2-2-22-22-22------|-2-2-22-22-22------|-2-2-22-22-22------|-2-2-22-22-22------|
|-0-0-00-00-0010013-|-0-0-00-00-0010035-|-0-0-00-00-0010013-|-0-0-00-00-0010035-|
  . . .. .. .......   . . .. .. .......   . . .. .. .......   . . .. .. .......   .palm mute

|-------------------|-------------------|-------------------|-------------------|
|-------------------|-------------------|-------------------|-------------------|
|-------------------|-------------------|-------------------|-------------------|
|-------------------|-------------------|-------------------|-------------------|
|-------------------|-------------------|-------------------|-------------------|
|-7-7-77-77-77------|-7-7-77-77-77------|-2-2-22-22-22------|-2-2-22-22-22------|
|-5-5-55-55-5565568-|-5-5-55-55-5565563-|-0-0-00-00-0010013-|-0-0-00-00-0010035-|
  . . .. .. .......   . . .. .. .......   . . .. .. .......   . . .. .. .......   .palm mute

Pre-Chorus:
|--------------------------|
|--------------------------|
|--------------------------|
|--------------------------|
|--------------------------|
|--------8-----8--8----5/7-|
|-66566506-00-06-06-00-3/5-|
  .......  .. .  .  ..      .palm mute

Chorus:
|--------------------------|
|--------------------------|
|--------------------------|
|----9~-7-----------7~-10~-|
|----9~-7-5~--7-7~~-7~-10~-|
|----7~-5-5~--7-7~~-5~- 8~-|
|-00-0~---3~--5-5~~--------|

Fill1:
|--------------------------------|
|--------------------------------|
|--------------------------------|
|------------------141414/171717-|	(Guitar2)
|------------------xxxxxxxxxxxxx-|
|-10~-9-10~-7-7~~--121212/151515-|
|--------------------------------|

Outro:
|---------------------------------|
|---------------------------------|
|---------------------------------|
|---------------------------------|	(Guitar1)
|-----9---------------------------|
|-7788-8877----10108810108877-----|
|----------0000--------------0000-|

|-----------------------------|
|-----------------------------|
|-----------------------------|
|-----------------------------|	(Guitar2)
|-----9-----------------------|
|-7788-8877-------------------|
|----------0000331133110-0000-|
            
Submit corrections

↑ Back to top | Tablatures and chords for acoustic guitar and electric guitar, ukulele, drums are parodies/interpretations of the original songs. You may use it for private study, scholarship, research or language learning purposes only