Home » S » Sting »

Sting - Lullaby For An Anxious Child Tabs

Artists:  A B C D E F G H I J K L M N O P Q R S T U V W X Y Z # 

Lullaby For An Anxious Child Tabs

(ver. 1) Click to play this song!
Sting
 Rating:
4/5 (4 votes)
                E--------------------12---10-------------8-----------8---7------------7---5-----
B---------------12-------------12-----------------------------------------------
G----------12-----------------------12-----------0----------------0-------------
D-------------------------------------------------------------------------------
A--------------------------------------------9---------------10-----------------
E---------------------------------------------------------------------------
                                                                                

                                                                                
E-----------5---3-----------3---2---------------0-----------0-------------------
B-------------------------------------------0-----------4---------------0-------
G-------0---------------0---------------0---------------------------0-----------
D-------------------2-----------------------------------------------------------
A---6-------------------------------3---------------2---------------------------
E---------------------------------------------------------------0---------------
                                                                                

                                                                                
E---0---------------------------------------------------------------------------
B-------3-----------1---------------0-----------0-----------0-------------------
G-----------4-------------------2-------------------2-----------2---0-----------
D---------------5-----------0---------------0-----------1---------------2-------
A-------------------------------------------------------------------------------
E-----------------------3---------------3---------------------------------------
                                                                                

                                                                                
E-----------------------------------------------------------0-------------------
B---0-----------------------------------0-------0---0-------0-------------------
G-------0---------------------------------------------------4-------------------
D-----------4-------2---2---1---2-----------2---------------2---2---1---2-------
A---------------3-------3---0---3---4-------------------4---4---0--(0)--2-------
E----------------------------------------------------------------------------0--
                                                                                





==                           TABLATURE EXPLANATION                            ==

----------                ----------                ----t---
----5h8--- Hammeron       ----(8)--- Ghost          ----6--- Tap
----------                ---------- Note           --------
----5p8--- Pulloff        ----------                --------

----------                ----------                -----p--
----5/8--- Slide Up       -----x---- Dead           -----7-- Pop
----------                ---------- Note           --s-----
----5\8--- Slide Down     ----------                --5----- Slap 

----------                ||------|| Repeat         --------
----5~~~-- Vibrato        ||*----*||                ---5^--- Bend
----------                ||*----*||                --------
----------                ||------||                --------

----------                ----------                --------
-4:------- Time           ------ nat.           --------
-4:------- Signature      ---------- Harmonic       --------
----------                ----------                --------
            
Submit corrections

↑ Back to top | Tablatures and chords for acoustic guitar and electric guitar, ukulele, drums are parodies/interpretations of the original songs. You may use it for private study, scholarship, research or language learning purposes only