Home » S » Sting »

Sting - Englishman In New York Tabs

Artists:  A B C D E F G H I J K L M N O P Q R S T U V W X Y Z # 

Englishman In New York Tabs

(ver. 1) Click to play this song!
Sting
 Rating:
4.3/5 (26 votes)
                [Solo]
  Bm                  Em7                  A
e|-19-17-------------|-----------------------------------------|
B|-------19-17-------|-----------------------------------------|
G|-------------16----|---------14-15-16-15-14--14----14--16b18-|
D|----------------16-|-19--19---------------------16-----------|
A|-------------------|-----------------------------------------|
E|-------------------|-----------------------------------------|

  Bm                                       Em7            A
e|----------------------------------15b17-|--------------------------------------|
B|----------------------------------------|--------------------------------------|
G|--14----14-15-16-15-14----14--14--------|-14----14-15--16-15-14----14-15-16-15-|
D|-----16----------------16---------------|----16-----------------16-------------|
A|----------------------------------------|--------------------------------------|
E|----------------------------------------|--------------------------------------|

  Bm                                     Em7                         A
e|--------------------------------------|-------14h15p14----------------------------15-14----|
B|-----------------------------------14-|-15-17----------17-15-14-------------14-17-------17-|
G|-14-----------------14-------14-16----|-------------------------14-16----15----------------|
D|----16----14-----16----16-17----------|-------------------------------16-------------------|
A|-------17-----------------------------|----------------------------------------------------|
E|--------------------------------------|----------------------------------------------------|

  Bm                                                Em7                    A
e|-------------------------------------14-19p14----|----14-----------------------------------|
B|-15h17-14h15----------------14-15-17----------17-|-15----15-14------------------17b19-17---|
G|-------------16----13-15-16----------------------|-------------16----14--------------------|
D|----------------16-------------------------------|----------------16-----16-17-------------|
A|-------------------------------------------------|-----------------------------------------|
E|-------------------------------------------------|-----------------------------------------|

  Bm
e|-14-19-14------17p14-------14----------------------|------------|
B|----------17~--------17-15----15p14----15----------|------------|
G|------------------------------------16----16p14----|------------|
D|------------------------------------------------16-|-14~--------|
A|---------------------------------------------------|------------|
E|---------------------------------------------------|------------|            
Submit corrections

↑ Back to top | Tablatures and chords for acoustic guitar and electric guitar, ukulele, drums are parodies/interpretations of the original songs. You may use it for private study, scholarship, research or language learning purposes only