Home » S » Stills Stephen »

Stills Stephen - My Love Is Tabs

Artists:  A B C D E F G H I J K L M N O P Q R S T U V W X Y Z # 

My Love Is Tabs

(ver. 1) Click to play this song!
Stills Stephen
 Rating:
4/5 (4 votes)
                MY LOVE IS A GENTLE THING- Stephen Stills

TUNING: D A D F# A D (record down half a step)

    D6       A11/D  D   Dsus4  D
My love is gentle thing
     D6           A11/D  D  Dsus4  D
She moves with a whispering
     D6          A11/D    D   Dsus4  D
She waits for my mind to slow
     D6      A11/D D  Am
And then I'm hers to know

CHORUS:
Am        Em       D         Dsus4  D  Bm7+5  D
Have you seen her love eyes?
Am       Em       Bm     Gm   Bm   RIFF
Watching me, her love eyes

We lay in Hawai'i's sun
The water will make us one
The sleep of peace will come
The end of trouble has begun

Am        Em       D         Dsus4  D Bm7+5  D
Have you seen her love eyes?
Am       Em       Bm     Gm  Bm
Watching me, her love eyes  oooh


RIFF:
    (Bm)
D  -------------|
A  -------------|
F# -----8-8-----|
D  -7h9-----9-7-|
A  -------------|
D  -------------|

CHORDS:
    D6  A11/D  D  Dsus4  Am  Em  Gm  Bm  Bm7+5
D  -4----0-----0----0----7---2----5---9----5----|
A  -2----2-----0----0----7---2----5---9----5----|
F# -3----1-----0----1----6---1----4---8----5----|
D  -4----2-----0----0----7---2----5---9----0----|
A  ------------0----2----------------------0----|
D  ------------0----0----7---2----5---9----0----|


NOTE:  Some of these chords are kind of iffy, esp. for the verse part.
            
Submit corrections

↑ Back to top | Tablatures and chords for acoustic guitar and electric guitar, ukulele, drums are parodies/interpretations of the original songs. You may use it for private study, scholarship, research or language learning purposes only