» » »

Sticky Fingers - Caress Your Soul Bass

Artists:  A B C D E F G H I J K L M N O P Q R S T U V W X Y Z # 

Caress Your Soul Bass

(ver. 1) Click to play this song!
Sticky Fingers
 Rating:
4.3/5 (15 votes)

 Caress Your Soul lessons Tabs too difficult? Try these video lessons and learn fast
 
                [Stave 1]
G|-------------------------|-------------------------|-------------------------|-------------------------|
D|--9--9-------------------|--9--9-------------------|--9--9-------------------|--9--9-------------------|
A|--------9----------------|--------9-------------9--|--------9----------------|--------9----------------|
E|--------------10--10--9--|--------------10--10-----|--------------10--10--9--|--------------10--10--9--|

[Stave 2]
G|-----------------------|-----------------------|
D|-----------------------|--------------3--4--4--|
A|--------------4--5--5--|--4--4-----4-----------|
E|--5--5-----5-----------|-----------------------|

[Stave 3]
G|--------------------------------------------------|--------------------------------------|
D|--------------------------------------------------|--------------------------------------|
A|--------------------------4--4--4--4--2--2--2--2--|--------------4--4--4--4--2--2--2--2--|
E|--2--2--2--2--2--2--2--2--------------------------|--2--2--2--2--------------------------|            
Submit corrections


        Caress Your Soul lessons Hard to play? Try these video lessons and learn fast Caress Your Soul lessons
        
↑ Back to top | Tablatures and chords for acoustic guitar and electric guitar, ukulele, drums are parodies/interpretations of the original songs. You may use it for private study, scholarship, research or language learning purposes only