Home » S » Stewart Rod »

Stewart Rod - Interludings Tabs

Artists:  A B C D E F G H I J K L M N O P Q R S T U V W X Y Z # 

Interludings Tabs

(ver. 1) Click to play this song!
Stewart Rod
 Rating:
4/5 (4 votes)
                Written by Ron Wood

This short arrangement is usually heard before Rod Stewart's "You Wear
It Well," although on the CD it is featured as a separate song.  It is
track 6 on Stewart's 1972 album, Never A Dull Moment.


e|-4-4s5-----|-4-4s5-----|-4-4s5---7p5-|-----5---|
B|-------7---|-------7---|-------------|-8-7---7-|
G|---------6-|---------6-|-------------|---------|
D|-6---7-----|-6---7-----|-6---7-7-----|---7-----|
A|-----------|-----------|-------------|---------|
E|-----------|-----------|-------------|---------|

e|---3-3----|-3-3-2-3-|-4-5-5----|
B|------5---|---------|------7---|
G|-6-----4--|---4-----|-------6--|
D|---5----5-|---------|---7----7-|
A|----------|---------|----------|
E|----------|---------|----------|

e|-4-4s5-5----|-4-4s5-5----|-4-4s5---7p5---|-----5---|
B|--------7---|--------7---|-------------8-|-7-7---7-|
G|---------6--|---------6--|-----------6---|---------|
D|-6---7----7-|-6---7----7-|-6---7-7-------|-7-------|
A|------------|------------|---------------|---------|
E|------------|------------|---------------|---------|

e|-3-3----|-3-3-2-3-|-4-5-5----|-14-|
B|----5---|---------|------7---|----|
G|-----4--|---4-----|-------6--|----|
D|-5----5-|---------|---7----7-|----|
A|--------|---------|----------|----|
E|--------|---------|----------|----|
            
Submit corrections

↑ Back to top | Tablatures and chords for acoustic guitar and electric guitar, ukulele, drums are parodies/interpretations of the original songs. You may use it for private study, scholarship, research or language learning purposes only