Home » S » Stewart Al »

Stewart Al - Tasting History Tabs

Artists:  A B C D E F G H I J K L M N O P Q R S T U V W X Y Z # 

Tasting History Tabs

(ver. 1) Click to play this song!
Stewart Al
 Rating:
4/5 (4 votes)
                PROPS GO TO: Rob Watson




Shape suggestions to match the album sound

Gmajor7 1st (E string): put 1st finger on 2nd fret
                 2nd (B string) 2nd finger on 3rd fret
                 3rd 3rd finger on 4th fret
                 4th pinkie on 5th fret

F#7      1st (E) leave open
             2nd string put 1st finger on 2nd fret
             3rd string, 3rd finger on 3rd fret
             4th string, put pinkie finger on 4th fret
            5th string, put 3rd finger on 4th fret

Intro same as verse. It's the same four chord sequence all the way through
the song.



[Gmaj7]Stephanie's father [F#7]came here from Alsace
He[D] bought a grey Victorian house
[F#7]Filled with colored glass
He[Gmaj7] kept his old wine bottles
In a [F#7]cellar down below
On [D] Friday nights he takes some out
And [F#7]stands them in a row
And [Gmaj7]all that he said
[F#7]All of us there were tasting [D]history [F#7]


Rhythm Guitar part

 Gmaj7             F#7                D                 F#7    
    
  1 & 2 & 3   & 4 & 1 & 2 & 3   & 4 & 1 & 2 & 3   & 4 & 1 & 2 & 3   & 4 &             
      
E|2-0-2-0-2-2-0-2-0|2-0-2-0-2-2-0-2-0|2-0-2-0-2-2-0-2-0|2-0-2-0-2-2-0-2-0|
B|3-3-3-3-3-3-3-3-3|2-2-2-2-2-2-2-2-2|3-3-3-3-3-3-3-3-3|2-2-2-2-2-2-2-2-2|
G|4-4-4-4-4-4-4-4-4|3-3-3-3-3-3-3-3-3|2-2-2-2-2-2-2-2-2|3-3-3-3-3-3-3-3-3|
D|-----------------|-----------------|-----------------|-----------------|
A|-----------------|-----------------|-----------------|-----------------|
E|-----------------|-----------------|-----------------|-----------------|

 
0.52 First Solo
  D            F#7        Gmaj7             F#7
                          mute---           mute---
E|------------|----------|-----------------|-------------|
B|------------|----------|--3-3---3-5-5s7--|--2-2---2-3-5|
G|---9b11----7|6---------|4-----4----------|3-----3------|
D|-7----------|-----9-8--|-----------------|-------------|
A|------------|----------|-----------------|-------------|
E|------------|----------|-----------------|-------------|

  D              F#7         
                           
E|--------------|----------| 
B|s7-10-10b12r10|7---------| 
G|--------------|---9b11r9-| 
D|--------------|----------| 
A|--------------|----------| 
E|--------------|----------| 

1.50 Main Solo

  D            F#7        Gmaj7               F#7
                           
E|------------|--------7-|-------------7-----|-----------------|
B|-2h3--s7---s|11--------|10b12------7---10-7|-----------------|
G|------------|----9b11--|------9b11---------|9h10r9-7-9-7-9s11|
D|------------|----------|-------------------|-----------------|
A|------------|----------|-------------------|-----------------|
E|------------|----------|-------------------|-----------------|

  D                           F#7            Gmaj7             
                           
E|-------------------------10|9h10p9----9---|12b14-X-X-X-10-9----|
B|-------------------10-12---|-------12---11|-----------------10s|
G|---7-9s11---7-9s11---------|--------------|--------------------|
D|-7--------7----------------|--------------|--------------------|
A|---------------------------|--------------|--------------------|
E|---------------------------|--------------|--------------------|

  F#7                       D                                     
                           
E|-----------------------14|17b19-17--14-15-14------------|
B|11------------------15---|-------------------15---------|
G|---11h12p11-9-11-14------|----------------------14----14|
D|-------------------------|-------------------------16---|
A|-------------------------|------------------------------|
E|-------------------------|------------------------------|

  F#7                     Gmaj7                                                           
                           
E|-----------------------|---------------------9-10-12b14r12--10h12p10s9---| 
B|14----------14-15-14---|---------10-12-10-12---------------------------12|  
G|--14h15--15------------|12-11-12-----------------------------------------| 
D|-------16-----------s12|-------------------------------------------------| 
A|-----------------------|-------------------------------------------------| 
E|-----------------------|-------------------------------------------------| 

  F#7                                       D
                           
E|---------9-10-9h10p9-7h9p7s6-------------|--------------------------|
B|11-11-12----------------------8-7--------|--------------------------|
G|----------------------------------9-7-6-7|---7-9-9b11r9b11r9b11r9-7s|
D|-----------------------------------------|-7------------------------|
A|-----------------------------------------|--------------------------|
E|-----------------------------------------|--------------------------|

  F#7                        Gmaj7            F#7
                           
E|-----------------7-9-10s12|12b14-12-10-s14-|12---------------14-17--|
B|----------7-8-10----------|----------------|---14b15r14---14--------|
G|6-----6-7-----------------|----------------|------------------------|
D|--8-9---------------------|----------------|------------------------|
A|--------------------------|----------------|------------------------|
E|--------------------------|----------------|------------------------|

  D                       F#7
                           
E|19-17--15-14------------|------------14h17p15p14----14-|
B|-------------17-15------|------14-17-------------17----|
G|-------------------14-16|14h15-------------------------|
D|------------------------|------------------------------|
A|------------------------|------------------------------|
E|------------------------|------------------------------|

3.21 3rd Solo

  D          F#7            Gmaj7       F#7
  History                         
E|----------|-9b10-9-8-9-9s|10-12b14-10|9-10-12-10h12p10p9-------14-17-14|
B|----------|--------------|-----------|-------------------12-11---------|
G|-7-9s11-7-|--------------|-----------|---------------------------------|
D|----------|--------------|-----------|---------------------------------|
A|----------|--------------|-----------|---------------------------------|
E|----------|--------------|-----------|---------------------------------|

  D                   F#7          Gmaj7        
                          
E|17b19-17-15-14-----|------------|-------------------------------------|
B|--------------17b19|r17-15-14---|---12-14-15-------12-14-15------12-14|
G|-------------------|------------|12-------------12------------12------|
D|-------------------|----------12|------------12------------12---------|
A|-------------------|------------|-------------------------------------|
E|-------------------|------------|-------------------------------------|

  F#7                              D                         
                          
E|--------------------------------|---------------------7-----|
B|15p14p12-11-14-12-11------------|-----------7-------7---10-7|
G|---------------------12-11---9-7|9b11r9-7-9----9b11---------|
D|--------------------------------|---------------------------|
A|--------------------------------|---------------------------|
E|--------------------------------|---------------------------|

  F#7                  
                          
E|------------------------|
B|10b12-10b12-10b12r10-7-7|
G|------------------------|
D|------------------------|
A|------------------------|
E|------------------------|
            
Submit corrections

↑ Back to top | Tablatures and chords for acoustic guitar and electric guitar, ukulele, drums are parodies/interpretations of the original songs. You may use it for private study, scholarship, research or language learning purposes only