Home » S » Steve Morse »

Steve Morse - Rising Powers Tabs

Artists:  A B C D E F G H I J K L M N O P Q R S T U V W X Y Z # 

Rising Powers Tabs

(ver. 1) Click to play this song!
Steve Morse
Part A

E|-7-(19)-----------------------------------------------|----------------------
B|--------10-(22)-8-(20)-----------------8-(20)-10-(22)-|--------7-(19)--------
G|--------------------------------9-(21)----------------|-7-(19)--------9-(21)-
D|------------------------10-(22)-----------------------|----------------------
A|------------------------------------------------------|----------------------
E|------------------------------------------------------|----------------------





E|-------------------------------------|-------------------------------|---7-(19)-
B|-------------------------------------|-------------------------------|----------
G|-7-(19)----------------7-(19)-9-(21)-|-------------------------------|----------
D|----------------9-(21)---------------|-10-(22)-----------------------|----------
A|--------10-(22)----------------------|---------10~(22)---------------|----------
E|-------------------------------------|-------------------------------|----------





E|-----------------------------------------------|---------------------------------
B|-10-(22)-8-(20)-----------------8-(20)-10-(22)-|---------------------------------
G|-------------------------9-(21)----------------|-7-(19)-9b11-(21)r7-(19)---------
D|-----------------10-(22)-----------------------|---------------------------------
A|-----------------------------------------------|-------------------------10-(22)-
E|-----------------------------------------------|---------------------------------





E|----------------------|--------------------------------|--7b11-(19)-7-(19)---
B|----------------------|--------------------------------|---------------------
G|--------7-(19)-9-(21)-|--------------------------------|---------------------
D|-9-(21)---------------|-7~(21)-------------------------|---------------------
A|----------------------|--------------------------------|---------------------
E|----------------------|--------------------------------|---------------------





E----------------------|----------------------------------------------------|--
B--10b12-(22)-7~(19)---|----------------------------------------------------|--
G----------------------|-4b6-(16)r2-(14)----------------------2-(14)-4~(16)-|--
D----------------------|-----------------4-(16)-2-(14)----------------------|--
A----------------------|-------------------------------4-(16)---------------|--
E----------------------|----------------------------------------------------|--



                                      Part B

E-----------------------------------|---------5h7-5---------5-------------------
B-----------------------------------|--/7-7-7-5---5-8---5-8-----5b7--r--------5-
G-----------------------------------|--/4-4-4---------5---------------7---4-7---
D-----------------------------------|---4-4-4-----------------7---------5-------
A-----------------------------------|-------------------------------------------
E-----------------------------------|-------------------------------------------



                                                Part C

E|---------------------------------------------|------------------------|-------
B|---------------------------------------------|------------------------|-------
G|---4b5--r2---0-2-2b4--r0---------------------|------------------------|-------
D|-----------0-------------4-2h4p2-------------|------------------------|-------
A|-3-------------------------------3-5---------|--2--2----------2--2--2-|-0h2-5-
E|-------------------------------------2b3--r0-|--0--0--0-2b3--r0--0--0-|-------





E|-------------------------|---------------------|----------------------|-------
B|-------------------------|---------------------|----------------------|-------
G|-------------------------|---------------------|-2b4----2-------------|-------
D|-2~----------------------|-------------------2-|----------{5}b6-2-{4}~|---4b6-
A|---2---2---2-----------2-|--2---2---2--0h2-5---|----------------------|-------
E|---0---0---0---0-2b3--r0-|--0---0---0----------|----------------------|-------





E|-------------------------|-----------------------------------------|---------
B|-------------------------|-----------------------------------------|---------
G|-------------------------|--------{4}b6----r-----------------------|---------
D|--r2h4p2-----------------|---------------------{2}-{4}-{4}~b6------|---------
A|---------5---------------|-----------------------------------------|-1b3--r0-
E|-----------5b7--r{3}~----|----7\0----------------------------------|---------





E|--------------------|-----------------|-5h7-5---------5-------------------------
B|--------------------|-----------------|-5-----8---5-8-----5b7--r--------5-------
G|--------------------|-----------------|---------5---------------7---4-7-----4b5-
D|------------{2}b4---|---------------2-|-----------------7---------5-------------
A|--------------------|---------0h2-5---|-----------------------------------3-----
E|-0-{2}b4--0---------|-----------------|-----------------------------------------



                                         Part E

E|---------------------------------------|-----------------------|-------------
B|---------------------------------------|-----------------------|-------------
G|--r2---0-2-2b4--r0---------------------|-----------------------|-------------
D|-----0-------------4-2h4p2-------------|-----------------------|-------2~----
A|---------------------------3-5---------|-2--2----------2--2--2-|-0h2-5---2---
E|-------------------------------2b3--r0-|-0--0--0-2b3--r0--0--0-|---------0---





E|-------------------|---------------------|-----------------------------------
B|-------------------|---------------------|-----------------------------------
G|-------------------|---------------------|-14b18---r---12b14-----r-----------
D|-------------------|-------------------2-|----------14------------14-14------
A|-2---2-----------2-|--2---2---2--0h2-5---|-----------------------------------
E|-0---0---0-2b3--r0-|--0---0---0----------|-------------------------------/13-





E---------------------------------|------------------------------------------------
B---------------------------------|-----------------15b17-------------{15}--r------
G-------------------{12}b14-------|-----13-12-14-----------------------------14b15-
D----------------------------14~--|--------------14--------------------------------
A----------12-14-13---------------|------------------------------------------------
E-14-15-16------------------------|------------------------------------------------



                                                                    Part F

E|--------------|--------------------------------------------------|--7---7-----
B|--------------|-12-----------------------------------------------|--5h7-5-----
G|-12-14~-(14)\-|-11b13--r9h11p9----0------------------------------|--------7-0-
D|--------------|----------------11---{4}b5--r{2}~-----(2)/------2-|------------
A|--------------|------------------------------------------0h2-5---|------------
E|--------------|--------------------------------------------------|------------





E|--------------------------|-7---7----------------------|-12h14-12-------------
B|-----5---------------2----|-5h7-5---------5---2b4--r---|-12-------15----12-15-
G|-4-7---2-4b6--r4\2-----4~-|-------7-0-4-7---2-------4~-|-------------12-------
D|-------------------4------|----------------------------|----------------------
A|--------------------------|----------------------------|----------------------
E|--------------------------|----------------------------|----------------------





E|-12-------------------------------------|-7---7-------------------------|----
B|-------12b14--r12\10----12/14-12~-(12)\-|-5h7-5-------5---2b4--r--------|----
G|---------------------11-----------------|-------7-4-7---2-------4~------|----
D|----------------------------------------|-------------------------------|----
A|----12----------------------------------|-------------------------------|----
E|----------------------------------------|-------------------------------|----



                                                           solo

E|-----------------|--------------------------|---------7b9-----10b12---8------
B|-----------------|--------------------------|--10b12--------------------10-8-
G|-----------------|--------------------------|--------------------------------
D|-----------------|------------------------2-|---x----------------------------
A|---------2--2--2-|----------2--2--2-0h2-5---|---------------0----------------
E|---------0--0--0-|-0-2b3--r-0--0--0---------|--------------------------------





E|-------------------------|-----------------------------------|----------------
B|-------------------------|-----------------------------------|----10-12-13-14-
G|-9-8-7------7------------|---------------2-4b6-----{2}~------|--x-------------
D|-------10-7---7-{10}~----|---------2-3-4---------4------{4}\-|----------------
A|-------------------------|-0-2-3-4---------------------------|----------------
E|-------------------------|-----------------------------------|----------------





E-10-12---------------------------|--7b9--r-p5-5-------------------------|-----
B-------{13}b14-----10------{10}\-|------------8-5-----------------------|-----
G----------------------12-9-------|----------------8-7-5---7---5b7--r----|-----
D---------------------------------|----------------------7---7-----------|-----
A---------------------------------|--------------------------------------|---1-
E---------------------------------|--------------------------------------|-----





E-------------------------------------|--------------------------|--------------
B-------------------------------------|--------------------------|--------------
G-------------{5}-------------{2}~----|-0------------------------|-----4-4b5----
D-----0-1-2-3-------------2-4------4\-|---4b5-2------------------|--------------
A-2-3-------------0-2-3-4-------------|---------5-{2}b4----------|-0-2----------
E-------------------------------------|-----------------{5}~-----|------------5-





E--------------------------|-7b9--r-p5--------------------------|--------------
B--------------------------|-----------8-7-6-5------------------|--------------
G-----------{4}b5----2~----|-------------------8-7-6-5-7b9------|--------------
D-------2-3--------4----4\-|------------------------------------|--------------
A-2-3-4--------------------|------------------------------------|--0-2-3-4-3-2-
E--------------------------|------------------------------------|--------------



                                                                   Part G

E----------------------------------------------8b10--r{5}~----(5)\-|-7---7-----
B---------------3-------------8b9--3-4-5-6-5-4---------------------|-5h7-5-----
G-5-----------------------5-7--------------------------------------|-------7-0-
D---3-4-5-6-5-4---5-6-7-8------------------------------------------|-----------
A------------------------------------------------------------------|-----------
E------------------------------------------------------------------|-----------





E|--------------------------|-7---7----------------------|-7---7-----------------
B|-----5---------------2----|-5h7-5---------5---2b4--r---|-5h7-5---------5-------
G|-4-7---2-4b6--r4\2-----4~-|-------7-0-4-7---2-------4~-|-------7-0-4-7---2-4b6-
D|-------------------4------|----------------------------|-----------------------
A|--------------------------|----------------------------|-----------------------
E|--------------------------|----------------------------|-----------------------



                                                 Bass Solo

E|--------------|-7---7--------------------|------------------|----------|------
B|---------2----|-5h7-5-------5---2b4--r---|------------------|----------|------
G|--r4\2-----4~-|-------7-4-7---2-------4~-|------------------|----------|------
D|-------4------|--------------------------|------------------|----------|------
A|--------------|--------------------------|---------2--2-----|----------|-2--2-
E|--------------|--------------------------|---0-5-3-0--0-----|----------|-0--0-





E|------|-------------|-------------|-------------------------------------------
B|------|-------------|-------------|-8/10-10/12-12-10h12p10-8----5/7-7/8-8-7-5h
G|------|-------------|-------------|-------------------------------------------
D|------|-------------|-------------|-5/-7--7/-9--9--7h-9p-7-5----2/4-4/5-5-4-2h
A|------|-2--2--------|-2--2--------|--------------------------0----------------
E|------|-0--0--------|-0--0--------|-------------------------------------------



                                                                            Part H

E--------|------------|--------------|------------|-----------|-------------|---
B-7p5----|------------|--------------|------------|-----------|-------------|---
G--------|------------|--------------|------------|-----------|-------------|-4~
D-4p2----|------------|--------------|------------|-----------|-------------|---
A-----5--|-4--4-------|-4--4---------|-4---4------|-----------|-4---4-------|-2~
E--------|-2--2-------|-2--2---------|-2---2------|-----------|-2---2-------|---





E|--------------5-|-5h7-5---------5---------------------------------------------
B|--3-5-5-7-7-8---|-5---5-8---5-8-----5b7--r--------5---------------------------
G|----------------|---------5---------------7-0-4-7-----4b5--r2---0-2-2b4--r0---
D|--0-2-2-4-4-5---|-----------------7---------------------------0-------------4-
A|----------------|-----------------------------------3-------------------------
E|----------------|-------------------------------------------------------------





E|-------------------|----
B|-------------------|----
G|-------------------|----
D|-2h4p2-------------|----
A|-------3-5---------|-2--
E|-----------2b4--r0-|-0--
            
Submit corrections

↑ Back to top | Tablatures and chords for acoustic guitar and electric guitar, ukulele, drums are parodies/interpretations of the original songs. You may use it for private study, scholarship, research or language learning purposes only