Home » S » Steve Morse »

Steve Morse - Ghost Winds Tabs

Artists:  A B C D E F G H I J K L M N O P Q R S T U V W X Y Z # 

Ghost Winds Tabs

(ver. 1) Click to play this song!
Steve Morse
E|----------|--------------|-<12>-----------------------------------------|----
B|------9~--|--------------|------<12>------------------------------------|----
G|----------|--------------|-----------1-(13)-----------------------------|----
D|----------|--------------|------------------4-(16)-2-(14)---------------|----
A|----------|--------------|--------------------------------4-(16)-2-(14)-|----
E|----------|--------------|----------------------------------------------|----





E|--------|--------|-16----(16)--\9---|--14-------|-(14)---------|--------------
B|--------|--------|------------------|--12-------|-(12)---------|-17~----------
G|--------|--------|------------------|--11-------|-(11)---------|--------------
D|--------|--------|------------------|-----------|--------------|--------------
A|--------|--------|------------------|-----------|--------------|--------------
E|--------|--------|------------------|-----------|--------------|--------------





E--|-----------------|------------------------|---------------|-----------------
B--|--------------14-|------------------------|---------------|-----------------
G--|-------14b16-----|--14--r--11-12----------|----------9b11-|-r---------------
D--|-----------------|---------------12--12~--|---------------|------11----9h11-
A--|-----------------|------------------------|---------------|---------12------
E--|-----------------|------------------------|---------------|-----------------





E|---|----------------------|-------------------|----------|-----------------|-
B|---|--------10------------|-------------------|----------|-----------------|-
G|-9-|-11b13-----11--r------|-9b11--r----7p6h-7-|----------|-12~-------12b14-|-
D|---|-----------------9-11-|-------------------|----------|-----------------|-
A|---|----------------------|-------------------|----------|-----------------|-
E|---|----------------------|-------------------|----------|-----------------|-





E|---------------|---------------|-----------------|--------13p12------------|-
B|-13~-----------|-6p5-----------|-----------------|--------------13---------|-
G|---------------|-----9\7---5-7-|-(7)\2~----------|-----12-------------10p9-|-
D|------------10-|---------------|-----------------|-----------------10------|-
A|---------------|---------------|-----------------|-------------------------|-
E|---------------|---------------|-----------------|-------------------------|-





E|---------------------|---------|------------|----------------------|---------
B|---------------------|---------|------------|----------------------|---------
G|---------------------|---------|------------|-9/12~----------------|--(12)\--
D|-10------------------|---------|------------|----------------------|---------
A|----8\7-8-8h10---8-7-|-8-------|-(8)--------|----------------------|---------
E|---------------------|---------|------------|----------------------|---------





E|---|-----------------------|-----------------|----------------|----------------
B|---|-----------------------|-----------------|----------------|----------------
G|-9-|-12/-14-14~------------|-(14)------11\7--|-7/-12-12~------|--14/16-(16)p14-
D|---|-----------------------|-----------------|----------------|----------------
A|---|-----------------------|-----------------|----------------|----------------
E|---|-----------------------|-----------------|----------------|----------------





E|-------|-------|---------------|---------------|-------------|-------------|-
B|-------|-------|---------------|---------------|-------------|-------------|-
G|--14---|-------|--------11\9p7-|--7/9-9~-------|-------7p6h7~|-------------|-
D|-------|-------|---------------|---------------|-------------|-------------|-
A|-------|-------|---------------|---------------|-------------|-------------|-
E|-------|-------|---------------|---------------|-------------|-------------|-



                                   solo

E|------------|--------|----------|------------------|--------------------------
B|----<12>----|--------|----------|------------------|--------------------------
G|----<12>----|--------|----------|--------6-9~------|--------------------------
D|----<12>----|--------|----------|------7-----------|--------------------------
A|------------|--------|----------|----7-------------|--------------------------
E|------------|--------|----------|------------------|--------------------------





E-|---------------|-----------------|-----------------|------------------------
B-|---------------|-5-----5-4-----4\|-2~--------------|------------------------
G-|---1b2--r------|-----6-------4---|-----------------|-------------------9-11-
D-|---------4~----|---6-------4-----|-----------------|---------7-9-10-11------
A-|---------------|-----------------|-----------------|-7--9-11----------------
E-|---------------|-----------------|-----------------|------------------------





E|---|-----------------|------------------------|-----------------|-------------
B|-9-|-----------------|-------------------9b10-|--r-------12--12~|-----------9-
G|---|-11b13------r----|--9-------9-8-9-11------|---9-------------|-------------
D|---|--------------11-|-------11---------------|-------9---------|-------------
A|---|-----------------|----11------------------|-----------------|-------------
E|---|-----------------|------------------------|-----------------|-------------





E|----|-11b12--r-------------|-----------------------|--------------------------
B|-12-|----------12p9------9-|-12~----9-12-11~--9----|--------------------------
G|----|---------------9-11---|--------------------11-|-8--11--------------------
D|----|----------------------|-----------------------|--------9~----------------
A|----|----------------------|-----------------------|-----------------------11-
E|----|----------------------|-----------------------|--------------11-12-14----





E|-------|----------------------------12-14-16-14b16~--14-14p12-|---------------
B|-------|-------------------12-14-16---------------------------|-14b16---------
G|-------|----------11-13-14------------------------------------|---------------
D|-------|-11-13-14---------------------------------------------|---------------
A|-12-14-|------------------------------------------------------|---------------
E|-------|------------------------------------------------------|---------------





E|----------------|----11-------------------|-----------------|----------------
B|----------------|-12----11----14-------11-|-12b14-------r---|----------------
G|-------------13-|----------13----13-11----|-----------------|----------------
D|----------------|-------------------------|-----------------|----------------
A|----------------|-------------------------|-----------------|----------------
E|----------------|-------------------------|-----------------|----------------





E|--|-12---------|-----------9----------|-----0-------------|------------|-----
B|--|--9---------|--------11------------|-------------0-----|------------|-0---
G|--|-11---------|-----13---------------|-------6-------1---|------------|---3-
D|--|--9---------|---9---------11-------|---9-------------2-|------------|-----
A|--|------------|-9-----------------12-|---------9---------|-2-4--------|-----
E|--|------------|----------------12----|-----------7-------|-----2--2---|-----





E|--------||------0-----------|--------------------|---------------------|------
B|--------||*-------4-----2---|--------------------|-10p9---12---------9-|------
G|--------||----1-----4-----2-|--------------------|------9----11--------|-9----
D|-4------||------------2-----|--6-3-----2---------|--------------9-13---|---11p
A|---4----||*-4---------------|------2-6---4p2---2-|---------------------|------
E|-----2--||------------------|----------------5---|--0------------------|------



              repeat until end

E|--------------------||----------|-----------|---------|---------|-------|----
B|-------------------*||----------|------9-9--|---------|---------|-------|----
G|------9-------------||--9-------|---11------|---------|------9--|-------|----
D|-9------9-----------||----------|-----------|---------|---------|-------|----
A|---12-----11-------*||----------|-----------|---------|---------|-------|----
E|-------------12-11--||----------|-----------|---------|---------|-------|----





E|--------|-------|---------|----------|--------------|-------|----------|-----
B|-10-9-9-|-------|---------|--9-------|-10----12-12--|-------|--------9-|-----
G|--------|-------|---------|----------|--------------|-------|----------|-----
D|--------|-------|---------|----------|--------------|-------|----------|-----
A|--------|-------|---------|----------|--------------|-------|----------|-----
E|--------|-------|---------|----------|--------------|-------|----------|-----





E|-------|--------9-------|----------|---------11-12-|---------|-------14-16-16-
B|-------|----------12-12-|----------|------12-------|---------|----------------
G|-------|----------------|----------|---------------|---------|----------------
D|-------|----------------|----------|---------------|---------|----------------
A|-------|----------------|----------|---------------|---------|----------------
E|-------|----------------|----------|---------------|---------|----------------





E-|----------|-----------------|-----------|-17-----16-16-|---------|---------|-
B-|----------|-----------16-17-|-17--------|--------------|---------|---------|-
G-|----------|--------16-------|-----------|--------------|---------|---------|-
D-|----------|-----------------|-----------|--------------|---------|---------|-
A-|----------|-----------------|-----------|--------------|---------|---------|-
E-|----------|-----------------|-----------|--------------|---------|---------|-





E|-16----------|----17--19--19-|--------|----------|-
B|-------------|---------------|--------|----------|-
G|-------------|---------------|--------|----------|-
D|-------------|---------------|--------|----------|-
A|-------------|---------------|--------|----------|-
E|-------------|---------------|--------|----------|-
            
Submit corrections

↑ Back to top | Tablatures and chords for acoustic guitar and electric guitar, ukulele, drums are parodies/interpretations of the original songs. You may use it for private study, scholarship, research or language learning purposes only