Home » S » Steve Hackett »

Steve Hackett - Hands Of The Priestess Tabs

Artists:  A B C D E F G H I J K L M N O P Q R S T U V W X Y Z # 

Hands Of The Priestess Tabs

(ver. 1) Click to play this song!
Steve Hackett
[PART ONE]

e|--0-----------------0-----0-----------------0--------------0--4--------0-----------0--4--------0----------|
B|-----4-----------4-----4-----4-----------4-----4--------4-----------4-----------4-----------4-------------|
G|--------6-----6-----------------6-----6--------------6-----------6-----------6-----------6----------------|
D|-----------6-----------------------6--------------7-----------6-----------7-----------6-------------------|
A|----------------------------------------------------------------------------------------------------------|
E|----------------------------------------------------------------------------------------------------------|

e|-----------7-----------7-------------8-------------8------------------------------------------------------|
B|--------9-----------9------------10------------10--------------0-----------0-----------1----------1-------|
G|------------------------------------------------------------1-----------1-----------2----------2----------|
D|-----9-----------9-----------10------------10-------------------------------------------------------------|
A|---------------------------------------------------------2-----------2-----------3-----------3------------|
E|--0-----------0-----------0-------------0-------------0-----------0-----------0-----------0---------------|

e|--4-----------------7-----2-----------------0--2--4-----7-----12-----19------17--16--14------------0------|
B|-----------0-----------0-----------1-----------1-----------0------0-----------------------------------13--|
G|--------1-----------------------2-----------2----------------------------16----------14-h-17-------14-----|
D|--------------------6-----------------------------------6------------18-----------------------------------|
A|-----2-----------2-----------3-----------3-----------2---------------------------15-------------15--------|
E|--0-----------0-----------0-----------0-----------0-----------0--------------0---------------0------------|

e|--2-----------0----------------------0-----------------------3-----7-----7--------8-----------8-10--6-----|
B|-----------1--------1----0--------1--------4-----4-----------4--------------------5-----------------8-----|
G|--------2----------------------2--------2-----------------0-----0--------------5-----5-----5--------------|
D|-----2-----------2----2-----4-----------------4--------4-----------4-----------------------------8-----8--|
A|--0----------------------2--------------------------2-----------------------8-----------8-----6-----------|
E|-------------------------------------------------0--------------------7--5--------------------------------|

e|---------------3-----------------0-------------------------------4-----------------7-----2----------------|
B|--8-----10-----------5-----5-----------4--------1--0-------------0--------0-----------0-----------1-------|
G|------------------------------------0--------2-----------2-------1-----1-----------------------2----------|
D|-----8------8-----5-----5-----5-----------1-----------1-----1----------------------6----------------------|
A|---------------3-----------------------0----------------------------2-----------2-----------3-------------|
E|-----------------------------------------------------------------0-----------0-----------0----------------|

e|--------0--2--4-----7-----12*----7-----5--4--2------------0------2-----------0----------------------0-----|
B|-----------1-----------0------------0------------------------1------------1--------1----0--------1--------|
G|--------2------------------------------------2-h-5--------2------------2----------------------2--------2--|
D|--------------------6------------6----------------------------------2-----------2----2-----4--------------|
A|-----3-----------2------------------------3------------3---------0----------------------2-----------------|
E|--0-----------0-----------0---7--------0------------0-----------------------------------------------------|

e|--------------------3-----7-----7--------8-----------8-10--6------------------3-----------------0---------|
B|--4-----4-----------4--------------------5-----------------8-----8-----10-----------5-----5---------------|
G|-----------------0-----0--------------5-----5-----5------------------------------------------------0------|
D|-----4--------4-----------4-----------------------------8-----8-----8------8-----5-----5-----5------------|
A|-----------2-----------------------8-----------8-----6------------------------3---------------------------|
E|--------0--------------------7--5-------------------------------------------------------------------------|

e|--------------------------------------------------------------------12--11----------------------------7---|
B|--4--------1--0-------------0-----------0-----------------------0-------10----------13--12------10----5---|
G|--------2-----------2-------1--------1-----1-----------------1----------11------11----------11------------|
D|-----1-----------1-----1----------2-----------2-----------2-------------10--10------------------------6---|
A|--0----------------------------2-----------------2-----2----------------0---------------------------------|
E|----------------------------0-----------------------0-------------------------------------------------0---|

e|-----------0-----12--11--------------------------7-----------0-----7--6--------------------------------0--|
B|-----0-----------0---10----------13--12------10--5-----0-----------0--5--------8--7-----5--7--------------|
G|--------8-----8------11------11----------11---------------8-----8-----6-----6--------6--------------8-----|
D|--6------------------10--10----------------------6--6--------------------5-----------------------9--------|
A|---------------------0------------------------------------------------------------------------9-----------|
E|-------------------------------------------------0--------------------6--------------------7--------------|

e|-----7-----6--------------------2-----------------------------------0-----------------------3-----7-------|
B|-----------5--------8--7-----5-----------0--------5--4--0--------4--------4-----4-----------4-------------|
G|--8--------6-----6--------6-----------2-----------5-----------4--------4-----------------0-----0----------|
D|-----9--------5--------------------1-----------4-----------4-----------------4--------4-----------4-------|
A|--------9-----------------------2-----------0-----------2--------------------------2----------------------|
E|-----------6--------------------------------------------------------------------0--------------------7----|

e|--7--------8-----------8-10--6------------------3-----------------0---------------------------------------|
B|-----------5-----------------8-----8-----10-----------5-----5-----------4--------1--0---------------------|
G|--------5-----5-----5------------------------------------------------0--------2-----------2---------------|
D|--------------------------8-----8-----8------8-----5-----5-----5-----------1-----------1------------------|
A|-----8-----------8-----6------------------------3-----------------------0---------------------------------|
E|--5-------------------------------------------------------------------------------------------------------|


[PART TWO]
e|--------------2--------4-/-5--5-h-7--4--0---------------------------2--------4-/--5--5-h-7--4--0----------|
B|--5-----5-----4-----4---------5---------0--5-h-7-----4--5-----5-----4-----4----------5---------0--5-h-7---|
G|--------4-----------4---------4------------4------4-----------4-----------4----------4------------4-------|
D|-----6-----------4-------------------------4---------------6-----------4--------------------------4-------|
A|-------------------------------------------0------------------------------------------------------0-------|
E|--0--------4--2---------------0---------4---------------0--------4--2----------------0---------4----------|

e|--------0-----------2--------3-/-5---5-h-7--3--10--10-h-12------10----------------------------------------|
B|-----4--2--------2--3-----3----------0-------------10-------10------0--------0--------3--------------1----|
G|--4-----2-----2-----2-----2----------0------------------------------------0-----------------2-----2-------|
D|-----------2-----------0---------------------------0-------------------0-----------0-----0-----1----------|
A|--------0------------------------------------------9------------------------------------------------------|
E|--------------------2----------------3------------------------------3-----------3-----------3-------------|

e|-------------------------3--------------------------------------------------------------------------------|
B|-------------0-----3-------------------1**--0*-----------0-h-1-p-0-----0-h-1-p-0-----0-h-1-p-0------------|
G|--------0h2--------------------19*---------------2**----------------2-------------2-------------2---------|
D|-----1----------0-----0-----0-------0-------1---------1----------------1----------------------------------|
A|----------------------------------------------------------------------------------------------------------|
E|--3----------3-----------3-------------3-----------------3---------------------------3--------------------|

e|----------------------------------------------------------------------------------------------------------|
B|--0-h-1-p-0-----0-h-1-p-0-----0-h-1-p-0-----0-h-1-p-0-----0-h-1-p-0-----0-h-1-p-0--3--1-h-0---------------|
G|-------------2-------------2-------------2-------------2-------------2----------------------2-p-0---------|
D|--0---------------------------0---------------------------1---------------------------1-------------------|
A|----------------------------------------------------------------------------------------------------------|
E|----------------3---------------------------3---------------------------3---------------------------------|

e|-----------------------------------------------------------------------------2------5-----8-----11--------|
B|-----------0--1-p-0-----------------------------------------------1----4--------4------7-----10-----13----|
G|-----0--2------------2-p-0-----0-----0--2-h-4--2-p-0---------2-------2----5--0----------------------------|
D|--4-----------0-------------4-----4-----0-------------4-p-1-----4-----------------------------------------|
A|----------------------------------------------------------------------------------------------------------|
E|--3-------------------------3-------------------------3---------------------------------------------------|

e|------------------------------7--7--------8-p-7--5-----0-----2--------3-p-2--------7-----7--------8-p-7---|
B|--10--------------7--------------------5---------------8-----------3---------3-----------------5----------|
G|--0---------------0---------------------------------------0-----2-----------------------------------------|
D|----------12*-------------12*-------5---------------5---------------------------0-----0-----5-------------|
A|------12*-----12*-----12*---------------------------------------------------------------------------------|
E|---------------------------------8---------------8-----------3---------------3-----------8----------------|

e|--5-----0-----2--------3-p-2--------7-----7--------8-p-7--5-----0-----10----------10-p-12--10-------------|
B|--------8-----------3---------3-----------------5---------------8----------------------------------0------|
G|-----------0-----2-------------------------------------------------0----------11----------------------0---|
D|-----5---------------------------0-----0-----5---------------5--------------------------------------------|
A|--------------------------------------------------------------------------12-------------------12---------|
E|--8-----------3---------------3-----------8---------------8-----------10-------------------10-------------|

e|-------------------------------------------------------------------------------------------|
B|--0--------1-p-0-----------------------------------0---------------------------------------|
G|--------0---------2-----0--------------0---------------------------------------------------|
D|-----2---------------2--------4-----0-----4--0--------0-----REPEAT X TIMES & FADE OUT------|
A|--3---------------3--------3-----0--------------2------------------------------------------|
E|------------------------------3--------------3---------------------------------------------|

            
Submit corrections

↑ Back to top | Tablatures and chords for acoustic guitar and electric guitar, ukulele, drums are parodies/interpretations of the original songs. You may use it for private study, scholarship, research or language learning purposes only